Travka – Vreau sa simt praga

(3 voturi)

Contribuție:  generalDona


Intro si vers
  Nota: Pt ritm si versuri consultati melodia

     |------------------------------------------
     |------3--------3----------4------4~------- 
     |------3--------3----------5------5~-------
     |------5--------5----------4------4~-------
     |--5-------------------5-------x-----------
     |-----------3-3----------------------------
 
         Aceleasi acorduri sunt pe toata durata melodiei,
 asa ca incercati sa alternati bataile si sa improvizati, fara sa iesiti
 din ritm...

    Asta e un mic exemplu:

     |------3---x-x-x-3---x-------x----5--|
     |------3---x-x-x-3---x---4---x----4--|
     |------3---x-x-x-3---x---5---x----5--|
     |--5---5---x-x-x-5---x---4---x----4--|
     |--5-------x-x-x-----x---5---x----5--|
     |--3-------x-x-x-----x---x---x----x--|

          Cam asta ar fi ciupitura de la final, notele din 
          paranteza sunt mai "silentioase"...:

      |------------------------------------------------------------------
      |------------------------------------------------------------------
      |-----------------3-----5---------(3)--------------3-----3--2-3-2--
      |-------5-3-----5---------5-3---(5)--------5-3---5-----5--5------5-
      |-------------5---------------(5)--------5-----5-----5-------------
      |---3----------------3---------------------------------------------


         Cam asta e.. un cantec simplu in general, dar care trebuie
 improvizat daca vreti sa-l faceti de unu singur.
 Eu sincer as recomanda sa fie facut de cel putin doua chitari pt o 
performanta buna, deoarece observati ca melodia originala are destule
artificii care acopera chitara, asta doar pt a scapa cantecul de 
mediocritate.  Oricum nu conteaza cum il cantati atata timp cat va 
distrati...

Rock  

Ultima actualizare:  04.02.2009

Pentru a putea vota sau adăuda comentarii, e nevoie să te autentifici sau înregistrezi .