Blaxy Girls – Si totusi

(3 voturi)

Contribuție:  mr.cassy


Intro : Reverse guitar si apoi incepe
                                                      
--------------4--------|---------------------|---------------------------------------
------------------6----|------------2--------|----4------------------4---------------
--------6--------------|----------------3----|------------------------------------5--
-----------------------|-------4-------------|-----------6----6-------------6--------
-----------------------|---------------------|---------------------------------------
-----------------------|---------------------|---------------------------------------

                                
------------------------------------------------
------------------------------------------------
-----6---------3------------------5----------
--3---------3------------------6----------
------------------------------------------------
------------------------------------------------
1.Totul a-nceput erau de-a pururi el si ea
Cuvinte dulci si grele adesea ii spunea
De mana fericiti pe mal ei se plimbau
Si dimineata in rasarit se sarutau

                             
------------------------|------------------------------
-----------6-----------|------------2-----------------
--------6-----6--------|---------3----3--------------
-----6-----------6-----|-------4---------4-----------
--4--------------------|-----4------------------------
------------------------|-----------------------------
                         UUUuU Eee
                              
------------------------|-------------------------------
------------6-----------|--------------4---------------
---------6-----6--------|-----------5----5------------
------6-----------6-----|--------6----------6---------
---4--------------------|------6-----------------------
-------------------------|------------------------------
   Naa               UUuU Eee

C#                             F#
------------------------|------------------------------
-----------6-----------|------------2-----------------
--------6-----6--------|---------3----3--------------
-----6-----------6-----|-------4---------4-----------
--4--------------------|-----4------------------------
------------------------|-----------------------------
     Naa            UUuU Eee

C#                              G#
------------------------|-------------------------------
------------6-----------|--------------4---------------
---------6-----6--------|-----------5----5------------
------6-----------6-----|--------6----------6---------
---4--------------------|------6-----------------------
-------------------------|------------------------------
                        UUuU Eee

                             
Si totusi ea spera ea spera spera
                            
Si totusi ea spera ea spera spera mai mult
                           
Si totusi ea spera ea mereu spera
                           
Si totusi ea spera ea spera spera mai mult

Dar de ce spera?

------------------------------------------------
------------------------------------------------
------------6---------3------------------5----------
---------3---------3------------------6----------
------------------------------------------------
------------------------------------------------
2.Cand totul s-a sfarsit atunci erau complet distrusi
Ei se iubeau si totusi se lasau condusi
O vorba,un cuvant de dor ar fii prea mult
Pentru ca el si ea sa aibe inceput
Timpul a trecut de cand ei nu isi mai vorbesc
De-a pururi el si ea nu se mai intalnesc
Cu toate ca ea plange si inca visaza
El nici nu vede sta in club si se distreaza

                              
------------------------|------------------------------               
-----------6-----------|------------2-----------------             
--------6-----6--------|---------3----3--------------
-----6-----------6-----|-------4---------4-----------
--4--------------------|-----4------------------------
------------------------|-----------------------------
Ea treptat                  isi revenea

                               
------------------------|-------------------------------
------------6-----------|--------------4---------------
---------6-----6--------|-----------5----5------------
------6-----------6-----|--------6----------6---------
---4--------------------|------6-----------------------
-------------------------|------------------------------
      Incet       iar              recadea                        
C#                             F#
------------------------|------------------------------               
-----------6-----------|------------2-----------------             
--------6-----6--------|---------3----3--------------
-----6-----------6-----|-------4---------4-----------
--4--------------------|-----4------------------------
------------------------|-----------------------------
Ea treptat                  isi revenea

C#                              G#
------------------------|-------------------------------
------------6-----------|--------------4---------------
---------6-----6--------|-----------5----5------------
------6-----------6-----|--------6----------6---------
---4--------------------|------6-----------------------
-------------------------|------------------------------
      Incet       iar              recadea                        

F#     C#         A#
Ha ha ha degeaba
Ha ha ha degeaba
Ha ha ha degeaba
Ha ha ha degeaba...

 F#       C#         G#            A#
Si totusi ea spera ea spera spera
 F#       C#         G#           A#
Si totusi ea spera ea spera spera mai mult
 F#       C#         G#          A#
Si totusi ea spera ea mereu spera
 F#       C#         G#          A#
Si totusi ea spera ea spera spera mai mult
F#    C#       G#     A#
Dar de ce spera?
F#    C#      G#     A#
Pai de ce sa spere
F#    C#     G#     A#
De fraier de ce sa spere
F#       C#             G#                A#
Ca a avut atatea sanse si n-a facut nimïc
F#       C#            G#                 A#


Asta e ...Pa pa .



Piesa e frumoasa dar si putin grea , imbinati acrodurile bine si ciupitura
 si iese foarte bine , mie pe un GRB Kokocaster imi suna perfect,Succes :)

Pop-Rock  

Ultima actualizare:  12.02.2009

Pentru a putea vota sau adăuda comentarii, e nevoie să te autentifici sau înregistrezi .

Acorduri