Dan Balan – Despre tine cant

(7 voturi)

Contribuție:  dudutsz


Intro

              Gm               D#                    F
e|----------------------------------------6------------------------------------|
B|--------------------------8-------8---------8---------------1-------------------|
G|------------------------------8---------------------------------2-------------|
D|-----5-----3---5----3----------------------------------3------------------------|
A|--------5----------------------------------------3----------------------------|
E|----------------------------------------------------------------------------|


        Dm
e|----------5-----------5-------------------------------------------------------|
B|--------------6--------------------------------------------------------------|
G|------7-----------7-----------------------------------------------------------|
D|----------------------------------------------------------------------------|
A|--5--------------------------------------------------------------------------|
E|----------------------------------------------------------------------------|




                                 
E tot, e pustiu, cata durerea-n mine
                                
Si cata dragoste si toata, toata-i pentru tine
                                                    
Nu inteleg ce fac pe lume Cand nu ma vrei aproape
                                   
Nu ma visezi in noapte Asa cum te visez

                                                    
Dar eu plec, iar tu ramai Si-ti mai doresc
                                   
 iubirea care-am vrut sa ti-o ofer atat de mult
                                                    
Poate acum, cand nu mai sunt Vei intelege sper...
		
Dar va fi tarziu Si eu ma înalt spre cer

Refren


                              
Si eu ma inalt spre cer
                                    
Si simt ca te las in gerul meu
                              
Cand ploaie va fi pe pamant
                                 
Tu vei sti ca despre tine cant
                                             
Cand soare va fi pe pamant
                                  
Tu vei sti...ca despre tine cant
 
                                    
Nu mi-a ramas nici-o speranta    Tu le-ai ars pe toate
                                
Si cata dragoste ai ars nu vei afla vreodata
                                    
Iti amintesti de ziua-n care Vroiam sa-ti daruiesc o floare?
                                
tu gingas mi-ai soptit ca pleci
          
Iar eu raman...


                                               
Nu, eu plec, iar tu ramai 
                                             
Si-ti mai doresc iubirea care-am vrut Sa ti-o ofer atat de mult
                                    
Poate acum, cand nu mai sunt   Vei intelege, sper...
                                
Dar va fi tarziu Si eu ma inalt spre cer


Solo

h  = hammer-on
s  = slide
b  = bend


e|-------------------------------------------------------------------------------|
B|-------------------------------------------------------------------------------|
G|-------------------------------------------------------------------------------|
D|-----7s8---8s10----8---10----12------7-----5-----3---5----7---8----7--8--8s10--|
A|-------------------------------------------------------------------------------|
E|-------------------------------------------------------------------------------|



e|-------------------------------------------------------------------------------|
B|-------------------------------------------------------------------------------|
G|-------------------------------------------------------------------------------|
D|--8----8s10----8---10----12----5h7--7s8----8s10---10s12---10---11--------------|
A|-------------------------------------------------------------------------------|
E|-------------------------------------------------------------------------------|



e|-------------------------------------------------------------------------------|
B|---18----17----15--------------------------------------------------------------|
G|---------------------16---19---16----19b--19-----21----19---17----15----19b----|
D|-------------------------------------------------------------------------------|
A|-------------------------------------------------------------------------------|
E|-------------------------------------------------------------------------------|






e|-------------------------------------------------------------------------------|
B|-------------------------------------------------------------------------------|
G|--21------19------21-----19-----17-----15-----12----15----12-------------------|
D|-----------------------------------------------------------------15----12------|
A|-------------------------------------------------------------------------------|
E|-------------------------------------------------------------------------------|



e|-------------------------------------------------------------------------------|
B|-------------------------------------------------------------------------------|
G|--15---12-----------------15-----17---19----17----15-----17s19------17-----(19)|
D|------------15---12------------------------------------------------------------|
A|-------------------------------------------------------------------------------|
E|-------------------------------------------------------------------------------|



Ref

                    
Numai durerea mea e pe pamant
                          
Ultima data despre tine cant
                           
Pastrez in suflet numele tau sfant
                    
Toata viata tï-o dau...

Ultima actualizare:  07.03.2009

Comentarii

Pentru a putea vota sau adăuda comentarii, e nevoie să te autentifici sau înregistrezi .

Acorduri