Florin Chilian – Zece

(8 voturi)

Contribuție:  anonim3686


C                                G
e ---------------------------3-------1--0--------0--1-0|
B ------------1-----------------------------3----------|
G ------------------0------------0---------------------|
D --------2--------------2-----------------------------|
A ---3--------------------------------------2----------|
E -----------------------------------------------------|

           Am                          F ( 0 0 3 0 1 0 )          
  -----------------------------------------------------------|
  ----------1-----0--------1-------------1------0--------1---|
  -------------2-----2---------------0------0------0---------|
  ------2---------------2--------3--------------------3------|
  ---0-------------------------------------------------------|
  -----------------------------------------------------------|

--------------------------------------------------------------------------------------3s6----3---0|
-----3-------1-----0---1------------------1------------1----------1-----------0h1-----------------|
---------0------0--------------------0------------0-----------0------------0----------------------|
--------------------------------3-------------2-----------0-------------0-------------------------|
-----3--------------------------------------------------------------------------------------------|
---------------------------------------------------------------------3----------------------------|


     c                   G

  ---3-----3----1---0---------0---1---0----|
  -----------------------3-----------------|
  -----------------------------------------|
  -----------------------------------------|
  ---3-------------------2-----------------|
  -----------------------------------------|
          Am                      F ( 0 0 3 0 1 0 )

  -----------------------------------------------------------|
  ----------1-----0--------1-------------1------0--------1---|
  -------------2-----2---------------0------0------0---------|
  ------2---------------2--------3--------------------3------|
  ---0-------------------------------------------------------|
  -----------------------------------------------------------|

--------------------------------------------------------------------------------------1-|
-----3-------1-----0---1------------------1------------1----------1-----------0h1-----1-| 
---------0------0--------------------0------------0-----------0------------0----------0-| 
--------------------------------3-------------2-----------0-------------0---------------| 
-----3----------------------------------------------------------------------------------|
---------------------------------------------------------------------3------------------|


                           
Zece intamplari ciudate si-o minune
       
Te-au adus in casa, zece
                           
Zece pictori se tot mira
                
Cat esti de frumoasa

          
Zece zile trec absurd de nu stiu
                
Nu stiu cum, nu stiu pe unde, nu stiu
                            
Zece vieti de-as sta cu tine 
            
Tot ar fi putine      (intro)


             
Doua stele, paralele,
                
Stele, lacrimi innodate si
                  
Lumina de la ele
             
Pentru tine toate

                        
Patru printi cu trei castele
            
Ape, lanturi fermecate si
                    
Tot cerul peste ele
             
Pentru tine toate

Folk  

Comentarii

Pentru a putea vota sau adăuda comentarii, e nevoie să te autentifici sau înregistrezi .

Acorduri