Trooper – Amintiri (original)

(2 voturi)

Contribuție:  Bogdan Alin


Ciupeala de la inceputul piesei:                        H = hammer on

eb ------------------------------------------------
Bb -------3-----------2----------------------------
Gb -----4---4-------2---2---------4-------------7--
Db ---4-------4---4-------4-----4---4---------4----
Ab -2-----------2-------------5-------5-----5------
Eb -------------------------7-----------7-7--------


Pe soloul de la inceput:

eb ------------------------------------------------------------------  x3
Bb -------3-----3---------2-----2---------3-----3---------3-----3----
Gb -----4---4-----4-----4---4-----4-----4---4-----4-----4---4-----4--
Db ---4-------4-------4-------4-------4-------4-------4-------4------
Ab -2---------------2---------------2---------------2----------------
Eb ------------------------------------------------------------------


Strofa ciupita (prima strofa):
                      H
eb ---------2---------------2---------------0----------------------  x2
Bb -------3---3-----2-3-------3-----------2---2-----3-----2--------
Gb -----4-------4-------4-------4-------2-------2-----2-----2------
Db ---4-----------4-------4-------4---2-----------2-----2-----2----
Ab -2-------------------------------0---------------------------0--
Eb ----------------------------------------------------------------
                               H
eb ------3-------3-------2--------2-------3-------3-------0-----------
Bb -------0-------0-----3-3--2-3---3-------0-------0-----2-2--3--2----
Gb ----0---0----0--0---4---4----4---4----0--0----0--0---2---2--2--2---
Db ---0-----0--0----0-4-----4----4---4--0----0--0----0-2-----2--2--2--
Ab --2--------2------2-----------------2-------2------0-------------0-
Eb -3--------3------------------------3-------3-----------------------



STROFA a 2-a (bataia dupa cum se aude pe disc):         H = hammer in
                                                        P = pull of
                                                / & \ = slide up & down
In orice... Privesc... Alerg... Sa fiu...
                                
Si luna... Ascunsa... Din nou... Tu uiti



REFREN (bataie, acordurile se schimba fix pe silanele sun care sunt scrise):
 
                                            
Amintiri, a-min-tiri, strang in suflet doar pri-viri    x3
                             
Amintiri, a-min-tiri, strang in suflet



Pe SOLO sunt aceleasi acorduri ca si pe refren



La STROFA a 3-a e o schimbare la final:

                             
Acelasi... Demult incerci sa-l uiti



Ciupeala refren final (cand inceteaza toba):
                          P
eb -----2-------3-------3-2-------------------2-------3-------0------------
Bb ----3-3-------0-----3---3-----2-2/3\2-----3-3-------0-----2-2--3-2------
Gb ---4---4----0--0---2-----2---2-------2---4---4----0--0---2---2--2-2-----
Db --4-----4--0----0-0-------0-2---------2-4-----4--0----0-2-----2--2-2----
Ab -2--------2----------------0-----------2--------2------0------------0---
Eb ---------3-------------------------------------3---------------------0--



FINALUL (si asa vom fi...):
                                                                  H
eb -----3-------------------2-0-3---3-------2-------2-------2--------2-----
Bb ------0-----2-2/3\2-----3--2-0-0--0-------2-------2-----3-3--2-3---3----
Gb ----0--0---2-------2---4---2-0--0--0----3--3----3--3---4---4----4---4---
Db ---0----0-2---------2-4----2-0------0--4----4--4----4-4-----4----4---4--
Ab --2------0-----------2-----0-2--------4-------4------2------------------
Eb -3---------------------------3-------2-------2--------------------------

Rock  

Pentru a putea vota sau adăuda comentarii, e nevoie să te autentifici sau înregistrezi .

Acorduri