Phoenix – Mugur de Fluier

(3 voturi)

Contribuție:  An3


Am vazut ca nimeni nu a facut o transcriere completa a cantecului Mugur de
 Fluier, asa ca m-am gandit sa pun una. E facuta cu Power Tab (pentru ca 
eu nu am Guitar Pro), si cred ca mi-a reusit destul de bine.

Cantecul are relativ putine instrumente, adica numai o chitara de ritm 
(Double Six-ul lui Covaci), bass (care nu l-am inclus in tab-ul asta) si 
fluier - toate destul de simple. Mai complicata insa e melodia la voce, 
pentru ca la refren canta mai multe voci deodata (trei cred)... deci am 
scris tab-uri pentru toate. 

...multumesc mult lui anonime pentru acorduri, fara care probabil nu as fi 
putut face tab-ul...

Intro

Tact: 3/4
  
                                               
 
  Chitara Ritm:
  E S S E E E E   E S S E E E E   E S S E E E E   E S S E E E E
|-3-3-3-3-3-3-3-|-2-2-2-2-0-2-x-|-3-3-3-3-3-3-3-|-2-2-2-3-x-5-0--|
|-0-0-0-0-0-0-0-|-3-3-3-3-3-3-3-|-0-0-0-0-0-0-0-|-3-3-3-3-3-3-3--|
|-0-0-0-0-0-0-0-|-2-2-2-2-2-2-2-|-0-0-0-0-0-0-0-|-2-2-2-2-2-2-2--|
|-0-0-0-0-0-0-0-|-0-0-0-0-0-0-0-|-0-0-0-0-0-0-0-|-0-0-0-0-0-0-0--|
|-2-------2-2---|-0-------0-0---|-2-------2-2---|-0-------0-0----|
|-3-------------|-x-------------|-3-------------|-x--------------|


                                                   
  

  Fluier:
  H         E E   H.               E E   +E  E +E  E   Q     +E  E E E
|---------------|----------------|-------------------|-----------------|
|---------------|----------------|-------------------|-----------------|
|---------------|----------------|-------------------|-----------------|
|-5---------5---|----------------|-------------------|-5-----(5)---5-7-|
|-------------7-|-5--------------|-5-7---(7)-7-(7)-7-|-----------7-----|
|---------------|----------------|-------------------|-----------------|
|
| Chitara Ritm:
| E S S E E E E   E  S S E E E E   E S S  E  E  E  E   E S S  E  E E E
|-3-3-3-3-3-3-3-|-2--2-2-2-2-2-2-|-0-0-0--0--0--0--0-|-0-0-0--0--0-0-0-|
|-0-0-0-0-0-0-0-|-3--3-3-3-3-3-3-|-1-1-1--1--1--1--1-|-1-1-1--1--1-1-1-|
|-0-0-0-0-0-0-0-|-2--2-2-2-2-2-2-|-2-2-2--2--2--2--2-|-0-0-0--0--0-0-0-|
|-0-0-0-0-0-0-0-|-0--0-0-0-0-0-0-|-2-2-2--2--2--2--2-|-2-2-2--2--2-2-2-|
|-2-------2-2---|-0--------0-0---|-0---------0--0----|-3---------3-3---|
|-3-------------|-x--------------|-0-----------------|-0---------------|


  G                D                      G               D
                    ~~~
  H.               +H           a   Q     H         Q     H           Q
|----------------|----------------------|---------------|-----------------|
|----------------|----------------------|---------------|-----------------|
|----------------|----------------------|---------------|-----------------|
|-9--------------|-(9)---------(9)\\-----|---------------|-----------------|
|----------------|----------------------|---------------|-----------------|
|----------------|----------------------|---------------|-----------------|
|
| E  S S E E E E    E  S S E E      E E   E S S E E E E   E S S E S S E E
|-3--3-3-3-3-3-3-|--2--2-2-2-0------2-x-|-3-3-3-3-3-3-3-|-2-2-2-3-2-x-5-0-|
|-0--0-0-0-0-0-0-|--3--3-3-3-3------3-3-|-0-0-0-0-0-0-0-|-3-3-3-3-3-3-3-3-|
|-0--0-0-0-0-0-0-|--2--2-2-2-2------2-2-|-0-0-0-0-0-0-0-|-2-2-2-2-2-2-2-2-|
|-0--0-0-0-0-0-0-|--0--0-0-0-0------0-0-|-0-0-0-0-0-0-0-|-0-0-0-0-0-0-0-0-|
|-2--------2-2---|--0--------0------0---|-2-------2-2---|-0-------0-0-0---|
|-3--------------|--x-------------------|-3-------------|-x---------------|


  H         E E   H.               Q     E e e +S  S   Q     +E  E E E
|---------------|----------------|-------------------|------------------|
|---------------|----------------|-------------------|------------------|
|---------------|----------------|-------------------|------------------|
|-5---------5---|----------------|-------------------|-5-----(5)---5-7--|
|-------------7-|-5--------------|-------5-7-7-(7)-7-|-----------7------|
|---------------|----------------|-------------------|------------------|
|
| E S S E E E E   E  S S E E E E   E S S E E E  E      E S S  E  E E E
|-3-3-3-3-3-3-3-|-2--2-2-2-2-2-2-|-0-0-0-0-0-0--0----|-0-0-0--0--0-0-0--|
|-0-0-0-0-0-0-0-|-3--3-3-3-3-3-3-|-1-1-1-1-1-1--1----|-1-1-1--1--1-1-1--|
|-0-0-0-0-0-0-0-|-2--2-2-2-2-2-2-|-2-2-2-2-2-2--2----|-0-0-0--0--0-0-0--|
|-0-0-0-0-0-0-0-|-0--0-0-0-0-0-0-|-2-2-2-2-2-2--2----|-2-2-2--2--2-2-2--|
|-2-------2-2---|-0--------0-0---|-0-------0-0-------|-3---------3-3----|
|-3-------------|-x--------------|-0-----------------|-0----------------|


                    ~~~
  H.               +H             a   Q     H         Q     H         Q
|----------------|------------------------|---------------|---------------|
|----------------|------------------------|---------------|---------------|
|----------------|------------------------|---------------|---------------|
|-9--------------|-(9)-----------(9)\\-----|---------------|---------------|
|----------------|------------------------|---------------|---------------|
|----------------|------------------------|---------------|---------------|
|
| E  S S E E E E    E  S S E S S      E E   E S S E E E E   E S S E E E E
|-3--3-3-3-3-3-3-|--2--2-2-3-2-x------5-0-|-3-3-3-3-3-3-3-|-2-2-2-2-2-2-2-|
|-0--0-0-0-0-0-0-|--3--3-3-3-3-3------3-3-|-0-0-0-0-0-0-0-|-3-3-3-3-3-3-3-|
|-0--0-0-0-0-0-0-|--2--2-2-2-2-2------2-2-|-0-0-0-0-0-0-0-|-2-2-2-2-2-2-2-|
|-0--0-0-0-0-0-0-|--0--0-0-0-0-0------0-0-|-0-0-0-0-0-0-0-|-0-0-0-0-0-0-0-|
|-2--------2-2---|--0--------0-0------0---|-2-------2-2---|-0-------0-0---|
|-3--------------|--x---------------------|-3-------------|-x-------------|


 Strofa

  Voce:
  H         E E   Q     +E  E Q       Q     +E  Q   E   H         Q
|---------------|-------------------|-----------------|----------------|
|---------------|-------------------|-----------------|----------------|
|---------------|-------------------|-----------------|----------------|
|-5---------5h7-|-7-----(7)-7-7-----|-7-----(7)-5---4-|----------------|
|---------------|-------------------|-----------------|-7---------5----|
|---------------|-------------------|-----------------|----------------|
|        
| Chitara Ritm:
| E S S E E E E   E S S  E  E S S E   E S S  E  E E E   E S S E E E E
|-3-3-3-3-3-3-3-|-2-2-2--2--2-2-2-2-|-0-0-0--0--0-0-0-|-0-0-0-0-0-0-0--|
|-0-0-0-0-0-0-0-|-3-3-3--3--3-3-3-3-|-1-1-1--1--1-1-1-|-1-1-1-1-1-1-1--|
|-0-0-0-0-0-0-0-|-2-2-2--2--2-2-2-2-|-2-2-2--2--2-2-2-|-0-0-0-0-0-0-0--|
|-0-0-0-0-0-0-0-|-0-0-0--0--0-0---0-|-2-2-2--2--2-2-2-|-2-2-2-2-2-2-2--|
|-2-------2-2---|-0---------0-0-----|-0---------0-0---|-3-------3-3----|
|-3-------------|-x-----------------|-0---------------|-0--------------|


  H         +E  E   H         Q     H         Q     H           Q
|-----------------|---------------|---------------|------------------|
|-----------------|---------------|---------------|------------------|
|-----------------|---------------|---------------|------------------|
|-----------------|---------------|---------------|------------------|
|-5---------(5)---|---------------|---------------|------------------|
|-----------------|---------------|---------------|------------------|
|
| E S S E E  E  E   E S S E E E E   E S S E E E E   E S S E S S E E
|-3-3-3-3-3--3--3-|-2-2-2-2-0-2-x-|-3-3-3-3-3-3-3-|-2-2-2-3-2-x-5-0--|
|-0-0-0-0-0--0--0-|-3-3-3-3-3-3-3-|-0-0-0-0-0-0-0-|-3-3-3-3-3-3-3-3--|
|-0-0-0-0-0--0--0-|-2-2-2-2-2-2-2-|-0-0-0-0-0-0-0-|-2-2-2-2-2-2-2-2--|
|-0-0-0-0-0--0--0-|-0-0-0-0-0-0-0-|-0-0-0-0-0-0-0-|-0-0-0-0-0-0-0-0--|
|-2-------2--2----|-0-------0-0---|-2-------2-2---|-0-------0-0-0----|
|-3---------------|-x-------------|-3-------------|-x----------------|


  H         E E   H         +E    E   Q     +E  Q   E   H         Q
|---------------|-------------------|-----------------|----------------|
|---------------|-------------------|-----------------|----------------|
|---------------|-------------------|-----------------|----------------|
|-5---------5h7-|-7---------(7)-----|-7-----(7)-5---4-|----------------|
|---------------|-------------------|-----------------|-7---------5----|
|---------------|-------------------|-----------------|----------------|
|
| E S S E E E E   E S S E E  S  S E   E S S  E  E E E   E S S E E E E
|-3-3-3-3-3-3-3-|-2-2-2-2-2--2--2-2-|-0-0-0--0--0-0-0-|-0-0-0-0-0-0-0--|
|-0-0-0-0-0-0-0-|-3-3-3-3-3--3--3-3-|-1-1-1--1--1-1-1-|-1-1-1-1-1-1-1--|
|-0-0-0-0-0-0-0-|-2-2-2-2-2--2--2-2-|-2-2-2--2--2-2-2-|-0-0-0-0-0-0-0--|
|-0-0-0-0-0-0-0-|-0-0-0-0-0--0--0-0-|-2-2-2--2--2-2-2-|-2-2-2-2-2-2-2--|
|-2-------2-2---|-0-------0--0------|-0---------0-0---|-3-------3-3----|
|-3-------------|-x-----------------|-0---------------|-0--------------|


  H         +E  E   H         Q     H         Q     H           Q
|-----------------|---------------|---------------|------------------|
|-----------------|---------------|---------------|------------------|
|-----------------|---------------|---------------|------------------|
|-----------------|---------------|---------------|------------------|
|-5---------(5)---|---------------|---------------|------------------|
|-----------------|---------------|---------------|------------------|
|
| E S S E E  E  E   E S S E E E E   E S S E E E E   E S S E S S E E
|-3-3-3-3-3--3--3-|-2-2-2-2-0-2-x-|-3-3-3-3-3-3-3-|-2-2-2-3-2-x-5-0--|
|-0-0-0-0-0--0--0-|-3-3-3-3-3-3-3-|-0-0-0-0-0-0-0-|-3-3-3-3-3-3-3-3--|
|-0-0-0-0-0--0--0-|-2-2-2-2-2-2-2-|-0-0-0-0-0-0-0-|-2-2-2-2-2-2-2-2--|
|-0-0-0-0-0--0--0-|-0-0-0-0-0-0-0-|-0-0-0-0-0-0-0-|-0-0-0-0-0-0-0-0--|
|-2-------2--2----|-0-------0-0---|-2-------2-2---|-0-------0-0-0----|
|-3---------------|-x-------------|-3-------------|-x----------------|


      Q     +E  E E E   H         +E    E   Q     +E  Q   E   H         Q
|-||------------------|-------------------|-----------------|----------------|
|-||o-----------------|-------------------|-----------------|----------------|
|-||------------------|-------------------|-----------------|----------------|
|-||--5-----(5)-7-9-5-|-7---------(7)-----|-7-----(7)-5---4-|----------------|
|-||o-----------------|-------------------|-----------------|-7p========5----|
|-||------------------|-------------------|-----------------|----------------|
|
|     E S S  E  E E E   E S S E E  S  S E   E S S  E  E E E   E S S E E E E
|-||--3-3-3--3--3-3-3-|-2-2-2-2-2--2--2-2-|-0-0-0--0--0-0-0-|-0-0-0-0-0-0-0--|
|-||o-0-0-0--0--0-0-0-|-3-3-3-3-3--3--3-3-|-1-1-1--1--1-1-1-|-1-1-1-1-1-1-1--|
|-||--0-0-0--0--0-0-0-|-2-2-2-2-2--2--2-2-|-2-2-2--2--2-2-2-|-0-0-0-0-0-0-0--|
|-||--0-0-0--0--0-0-0-|-0-0-0-0-0--0--0-0-|-2-2-2--2--2-2-2-|-2-2-2-2-2-2-2--|
|-||o-2---------2-2---|-0-------0--0------|-0---------0-0---|-3-------3-3----|
|-||--3---------------|-x-----------------|-0---------------|-0--------------|


  H         +E  E   H         Q     H         Q     H           Q
|-----------------|---------------|---------------|-------------------||
|-----------------|---------------|---------------|------------------o||
|-----------------|---------------|---------------|-------------------||
|-5---------(5)---|---------------|---------------|-------------------||
|-----------------|---------------|---------------|------------------o||
|-----------------|---------------|---------------|-------------------||
|
| E S S E E  E  E   E S S E E E E   E S S E E E E   E S S E S S E E
|-3-3-3-3-3--3--3-|-2-2-2-2-0-2-x-|-3-3-3-3-3-3-3-|-2-2-2-3-2-x-5-0---||
|-0-0-0-0-0--0--0-|-3-3-3-3-3-3-3-|-0-0-0-0-0-0-0-|-3-3-3-3-3-3-3-3--o||
|-0-0-0-0-0--0--0-|-2-2-2-2-2-2-2-|-0-0-0-0-0-0-0-|-2-2-2-2-2-2-2-2---||
|-0-0-0-0-0--0--0-|-0-0-0-0-0-0-0-|-0-0-0-0-0-0-0-|-0-0-0-0-0-0-0-0---||
|-2-------2--2----|-0-------0-0---|-2-------2-2---|-0-------0-0-0----o||
|-3---------------|-x-------------|-3-------------|-x-----------------||


 Bridge

 4/4 

  G       D     C     A

  Chitara Ritm:
  E S S E E +E  E +E  E   +E  S S E S S  E  S S E E
  | | | | |  |  |  |  |    |  | | | | |  |  | | | |
  / / / / /  /  /  /  /    /  / / / / /  /  / / / /

  Fluier:
  E E   E E +E  E +E  E   +H            +Q      E E
|-----------------------|---------------------------|
|-----------------------|---------------------------|
|-----------------------|---------------------------|
|-9-7---5-7-(7)-------7-|-(7)-----------(7)-----5-7-|
|---------------7-(7)---|---------------------------|
|-----------------------|---------------------------|


  G       D     Am    Em                D
  E S S E E +E  E +E  E   +E  S S E S S E S S E E
  | | | | |  |  |  |  |    |  | | | | | | | | | |
  / / / / /  /  /  /  /    /  / / / / / / / / / /

  E E   E E +E  E +E  E   +H            H
|-----------------------|---------------------------|
|-----------------------|---------------------------|
|-----------------------|---------------------------|
|-9-7---5-7-(7)-5-(5)---|---------------------------|
|---------------------7-|-(7)-----------------------|
|-----------------------|---------------------------|


  G       D     C     A
  E S S E E +E  E +E  E   +E  S S  E  S S E S S E E
  | | | | |  |  |  |  |    |  | |  |  | | | | | | |
  / / / / /  /  /  /  /    /  / /  /  / / / / / / /

  E E   E E +E  E +E  E   +Q      +H            E E
|-----------------------|---------------------------|
|-----------------------|---------------------------|
|-----------------------|---------------------------|
|-9-7---5-7-(7)-------7-|-(7)-----(7)-----------5-7-|
|---------------7-(7)---|---------------------------|
|-----------------------|---------------------------|


  G       D     Am    Em                D
  E S S E E +E  E +E  E   +E  S S E S S  E  S S E E
  | | | | |  |  |  |  |    |  | | | | |  |  | | | |
  / / / / /  /  /  /  /    /  / / / / /  /  / / / /

  E E   E E +E  E +E  E   +H            +Q
|-----------------------|----------------------------|
|-----------------------|----------------------------|
|-----------------------|----------------------------|
|-9-7---5-7-(7)-5-(5)---|----------------------------|
|---------------------7-|-(7)-----------(7)----------|
|-----------------------|----------------------------|


   Strofa:

    Voce:
    H         E E   H         E   E   Q     +E  Q   E   H         Q
||----------------|-----------------|-----------------|---------------|
||o---------------|-----------------|-----------------|---------------|
||----------------|-----------------|-----------------|---------------|
||--5---------5h7-|-7-------------7-|-7-----(7)-5---4-|---------------|
||o---------------|-----------------|-----------------|-7---------5---|
||----------------|-----------------|-----------------|---------------|
|
|   Chitara Ritm:
|   E S S E E E E   E S S E E S S E   E S S  E  E E E   E S S E E E E
||--3-3-3-3-3-3-3-|-2-2-2-2-2-2-2-2-|-0-0-0--0--0-0-0-|-0-0-0-0-0-0-0-|
||o-0-0-0-0-0-0-0-|-3-3-3-3-3-3-3-3-|-1-1-1--1--1-1-1-|-1-1-1-1-1-1-1-|
||--0-0-0-0-0-0-0-|-2-2-2-2-2-2-2-2-|-2-2-2--2--2-2-2-|-0-0-0-0-0-0-0-|
||--0-0-0-0-0-0-0-|-0-0-0-0-0-0-0-0-|-2-2-2--2--2-2-2-|-2-2-2-2-2-2-2-|
||o-2-------2-2---|-0-------0-0-----|-0---------0-0---|-3-------3-3---|
||--3-------------|-x---------------|-0---------------|-0-------------|


  H         +E  E   H         Q     H         Q     H           Q
|-----------------|---------------|---------------|-------------------||
|-----------------|---------------|---------------|------------------o||
|-----------------|---------------|---------------|-------------------||
|-----------------|---------------|---------------|-------------------||
|-5---------(5)---|---------------|---------------|------------------o||
|-----------------|---------------|---------------|-------------------||
|
| E S S E E  E  E   E S S E E E E   E S S E E E E   E S S E S S E E
|-3-3-3-3-3--3--3-|-2-2-2-2-0-2-x-|-3-3-3-3-3-3-3-|-2-2-2-3-2-x-5-0---||
|-0-0-0-0-0--0--0-|-3-3-3-3-3-3-3-|-0-0-0-0-0-0-0-|-3-3-3-3-3-3-3-3--o||
|-0-0-0-0-0--0--0-|-2-2-2-2-2-2-2-|-0-0-0-0-0-0-0-|-2-2-2-2-2-2-2-2---||
|-0-0-0-0-0--0--0-|-0-0-0-0-0-0-0-|-0-0-0-0-0-0-0-|-0-0-0-0-0-0-0-0---||
|-2-------2--2----|-0-------0-0---|-2-------2-2---|-0-------0-0-0----o||
|-3---------------|-x-------------|-3-------------|-x-----------------||


    Q     +E  E E E   H         +E    E    Q      +E  Q     E   H         Q
||------------------|-------------------|---------------------|---------------|
||o-----------------|-------------------|---------------------|---------------|
||------------------|-------------------|---------------------|---------------|
||--5-----(5)-7-9-5-|-7---------(7)-----|--7------(7)-5-----4-|---------------|
||o-----------------|-------------------|---------------------|-7p========5---|
||------------------|-------------------|---------------------|---------------|
|
|   Voci Secundare:
|   H           Q     Q     E E  Q        +H            +Q      Q     E E Q
||------------------|-------------------|---------------------|---------------|
||o-----------------|-------------------|---------------------|---------------|
||------------------|-------4-5--7------|-(7)-----------(7)---|-7-----5-4-2---|
||------------------|-------------------|---------------------|-9-----7-5-4---|
||o-----------------|-------------------|---------------------|---------------|
||------------------|-------------------|---------------------|---------------|
|
|   Chitara Ritm:
|   E S S  E  E E E   E S S E E  S  S E    E  S S  E  E  E  E   E S S E E E E
||--3-3-3--3--3-3-3-|-2-2-2-2-2--2--2-2-|--0--0-0--0--0--0--0-|-0-0-0-0-0-0-0-|
||o-0-0-0--0--0-0-0-|-3-3-3-3-3--3--3-3-|--1--1-1--1--1--1--1-|-1-1-1-1-1-1-1-|
||--0-0-0--0--0-0-0-|-2-2-2-2-2--2--2-2-|--2--2-2--2--2--2--2-|-0-0-0-0-0-0-0-|
||--0-0-0--0--0-0-0-|-0-0-0-0-0--0--0-0-|--2--2-2--2--2--2--2-|-2-2-2-2-2-2-2-|
||o-2---------2-2---|-0-------0--0------|--0----------0--0----|-3-------3-3---|
||--3---------------|-x-----------------|--0------------------|-0-------------|


  H         +Q      H         Q     H         Q     H           Q
|-----------------|---------------|---------------|-------------------||
|-----------------|---------------|---------------|------------------o||
|-----------------|---------------|---------------|-------------------||
|-5---------(5)---|---------------|---------------|-------------------||
|-----------------|---------------|---------------|------------------o||
|-----------------|---------------|---------------|-------------------||
|
| H         +Q      H         Q     H         Q     H           Q
|-----------------|---------------|---------------|-------------------||
|-----------------|---------------|---------------|------------------o||
|-4---------(4)---|---------------|---------------|-------------------||
|-5---------(5)---|---------------|---------------|-------------------||
|-----------------|---------------|---------------|------------------o||
|-----------------|---------------|---------------|-------------------||
|
| E S S E E  E  E   E S S E E E E   E S S E E E E   E S S E S S E E
|-3-3-3-3-3--3--3-|-2-2-2-2-0-2-x-|-3-3-3-3-3-3-3-|-2-2-2-3-2-x-5-0---||
|-0-0-0-0-0--0--0-|-3-3-3-3-3-3-3-|-0-0-0-0-0-0-0-|-3-3-3-3-3-3-3-3--o||
|-0-0-0-0-0--0--0-|-2-2-2-2-2-2-2-|-0-0-0-0-0-0-0-|-2-2-2-2-2-2-2-2---||
|-0-0-0-0-0--0--0-|-0-0-0-0-0-0-0-|-0-0-0-0-0-0-0-|-0-0-0-0-0-0-0-0---||
|-2-------2--2----|-0-------0-0---|-2-------2-2---|-0-------0-0-0----o||
|-3---------------|-x-------------|-3-------------|-x-----------------||


 Bridge
  G       D     C     A
 4/4

  Chitara Ritm:
  E S S E E +E  E +E  E   +E  S S E S S  E  S S E E
  | | | | |  |  |  |  |    |  | | | | |  |  | | | |
  / / / / /  /  /  /  /    /  / / / / /  /  / / / /

  Fluier:
  E E   E E +E  E +E  E   +H            +Q      E E
|-----------------------|---------------------------|
|-----------------------|---------------------------|
|-----------------------|---------------------------|
|-9-7---5-7-(7)-------7-|-(7)-----------(7)-----5-7-|
|---------------7-(7)---|---------------------------|
|-----------------------|---------------------------|
|
| Voce:
| E E   E E +E  E +E  E   +H             Q      E E
|-----------------------|---------------------------|
|-----------------------|---------------------------|
|-----------------------|---------------------------|
|-9-7---5-7-(7)-------7-|-(7)---------------------7-|
|---------------7-(7)---|---------------------------|
|-----------------------|---------------------------|


  G       D     Am    Em                D
  E S S E E +E  E +E  E   +E  S S E S S E S S E E
  | | | | |  |  |  |  |    |  | | | | | | | | | |
  / / / / /  /  /  /  /    /  / / / / / / / / / /

  E E   E E +E  E +E  E   +H            H
|-----------------------|---------------------------|
|-----------------------|---------------------------|
|-----------------------|---------------------------|
|-9-7---5-7-(7)-5-(5)---|---------------------------|
|---------------------7-|-(7)-----------------------|
|-----------------------|---------------------------|
|
| E E   E E +E  E +E  E   +H            H
|-----------------------|---------------------------|
|-----------------------|---------------------------|
|-----------------------|---------------------------|
|-9-7---5-7-(7)-5-(5)---|---------------------------|
|---------------------7-|-(7)-----------------------|
|-----------------------|---------------------------|


  G       D     C     A
  E S S E E +E  E +E  E   +E  S S  E  S S E S S E E
  | | | | |  |  |  |  |    |  | |  |  | | | | | | |
  / / / / /  /  /  /  /    /  / /  /  / / / / / / /

  E E   E E +E  E +E  E   +Q      +H            E E
|-----------------------|---------------------------|
|-----------------------|---------------------------|
|-----------------------|---------------------------|
|-9-7---5-7-(7)-------7-|-(7)-----(7)-----------5-7-|
|---------------7-(7)---|---------------------------|
|-----------------------|---------------------------|
|
| E E   E E +E  E +E  E   +Q      +Q      Q     E E
|-----------------------|---------------------------|
|-----------------------|---------------------------|
|-----------------------|---------------------------|
|-9-7---5-7-(7)-------7-|-(7)-----(7)-------------7-|
|---------------7-(7)---|---------------------------|
|-----------------------|---------------------------|


  G       D     Am    Em                D
  E S S E E +E  E +E  E   +E  S S E S S E S S  E  E
  | | | | |  |  |  |  |    |  | | | | | | | |  |  |
  / / / / /  /  /  /  /    /  / / / / / / / /  /  /

  E E   E E +E  E +E  E   +H            H
|-----------------------|----------------------------|
|-----------------------|----------------------------|
|-----------------------|----------------------------|
|-9-7---5-7-(7)-5-(5)---|----------------------------|
|---------------------7-|-(7)------------------------|
|-----------------------|----------------------------|
|
| E E   E E +E  E +E  E   +H            Q     +E  E
|-----------------------|----------------------------|
|-----------------------|----------------------------|
|-----------------------|----------------------------|
|-9-7---5-7-(7)-5-(5)---|----------------------------|
|---------------------7-|-(7)p==========5-----(5)----|
|-----------------------|----------------------------|


   Refren
    G           D           G       A
    Chitara Ritm:
    E S S  E  E E S S E E   E S S E E  E  S S E E
    | | |  |  | | | | | |   | | | | |  |  | | | |
    / / /  /  / / / / / /   / / / / /  /  / / / /

    Fluier:
    Q     +E  E H           E E   E E  E  E   Q
||------------------------|-----------------------|
||o-----------------------|-----------------------|
||------------------------|-----------------------|
||--9-----(9)p7-7---------|-5-7---9-7-----7-------|
||o-----------------------|-----------------------|
||------------------------|-----------------------|
|
|   Voce
|   Q     +E  E H           E E   E E +E  E   Q
||------------------------|-----------------------|
||o-----------------------|-----------------------|
||------------------------|-----------------------|
||--9-----(9)p7-7---------|-5-7---9-7-(7)-7-------|
||o-----------------------|-----------------------|
||------------------------|-----------------------|
|
|   Voci Secundare:
|   H           H           E E   E E +E  E   Q
||------------------------|-----------------------|
||o-----------------------|-----------------------|
||--7---------------------|-5-7---9-7-(7)-7-------|
||--------------7---------|-----------------------|
||o-----------------------|-----------------------|
||------------------------|-----------------------|


  Am      D7            G
  E S S E E  S  S E  E  E    E  S S E S S  E  S S E E
  | | | | |  |  | |  |  |    |  | | | | |  |  | | | |
  / / / / /  /  / /  /  /    /  / / / / /  /  / / / /

  E E   E E +E    E +E  E   +E  e   e E   +E  E   q
|-------------------------|-----------------------------|
|-------------------------|-----------------------------|
|-------------------------|-----------------------------|
|-7-5---7-9-(9)---7-(7)-5-|-(5)-5---5-5---(5)-----------|
|-------------------------|-------------------7---5-----|
|-------------------------|-----------------------------|
|
| E E   E E +E    E +E  E   +H             H
|-------------------------|-----------------------------|
|-------------------------|-----------------------------|
|-------------------------|-----------------------------|
|-7-5---4---------------5-|-(5)-------------------------|
|---------7-(7)---5-(5)---|-----------------------------|
|-------------------------|-----------------------------|
|
| E E   E E +E    E +E  E   +H             H
|-------------------------|-----------------------------|
|-------------------------|-----------------------------|
|-9-7---5-7-(7)---5-(5)-5-|-(5)-------------------------|
|-------------------------|-----------------------------|
|-------------------------|-----------------------------|
|-------------------------|-----------------------------|


  G           D           G       A               Am      D7            G
  E S S  E  E E S S E E   E S S E E  E  S S E E   E S S E E  E  S S  E  E
  | | |  |  | | | | | |   | | | | |  |  | | | |   | | | | |  |  | |  |  |
  / / /  /  / / / / / /   / / / / /  /  / / / /   / / / / /  /  / /  /  /

  Q     +E  E H           E E   E E  E  E   Q     E E   E E +E  E   +E  E
|-----------------------|-----------------------|-------------------------|
|-----------------------|-----------------------|-------------------------|
|-----------------------|-----------------------|-------------------------|
|-9-----(9)p7-7---------|-5-7---9-7-----7-------|-7-5---7-9-(9)-7---(7)-5-|
|-----------------------|-----------------------|-------------------------|
|-----------------------|-----------------------|-------------------------|
|
| Q     +E  E H           E E   E E +E  E   Q     E E   E E +E  E    E  E
|-----------------------|-----------------------|-------------------------|
|-----------------------|-----------------------|-------------------------|
|-----------------------|-----------------------|-------------------------|
|-9-----(9)p7-7---------|-5-7---9-7-(7)-7-------|-7-5---4---------------5-|
|-----------------------|-----------------------|---------7-(7)-5----5----|
|-----------------------|-----------------------|-------------------------|
|
| H           H           E E   E E +E  E   Q     E E   E E +E  E   +E  E
|-----------------------|-----------------------|-------------------------|
|-----------------------|-----------------------|-------------------------|
|-7---------------------|-5-7---9-7-(7)-7-------|-9-7---5-7-(7)-5---(5)-5-|
|-------------7---------|-----------------------|-------------------------|
|-----------------------|-----------------------|-------------------------|
|-----------------------|-----------------------|-------------------------|


 1.                                2.
   E  S S E S S  E  S S E E          E  S S E S S E S S E E
   |  | | | | |  |  | | | |          |  | | | | | | | | | |
   /  / / / / /  /  / / / /          /  / / / / / / / / / /

  +E  e   e E   +E  E   q    a      +H            H
|--------------------------------||---------------------------|
|-------------------------------o||---------------------------|
|--------------------------------||---------------------------|
|-(5)-7---9-9---(9)-7---9---(x)--||-(5)-----------------------|
|-------------------------------o||---------------------------|
|--------------------------------||---------------------------|
|
| +H             H           a      +H            H
|--------------------------------||---------------------------|
|-------------------------------o||---------------------------|
|--------------------------------||---------------------------|
|-(5)-----------------------(x)--||-(5)-----------------------|
|-------------------------------o||---------------------------|
|--------------------------------||---------------------------|
|
| +H             H           a      +H            H
|--------------------------------||---------------------------|
|-------------------------------o||---------------------------|
|-(5)-----------------------(x)--||-(5)-----------------------|
|--------------------------------||---------------------------|
|-------------------------------o||---------------------------|
|--------------------------------||---------------------------|


 Solo
 3/4
                                                      |----4:3----|
  H         E E   H         +E    E   H         E E   Q   Q   Q   Q
|---------------|-------------------|---------------|------------------|
|---------------|-------------------|---------------|------------------|
|---------------|-------------------|---------------|------------------|
|-5---------5h7-|-7---------(7)-----|-7---------7h9-|-9p==7---7p==5----|
|---------------|-------------------|---------------|------------------|
|---------------|-------------------|---------------|------------------|
|
| Gtr I
| E S S E E E E   E S S E E  S  S E   E S S E E E E   E S S E E E   E
|-3-3-3-3-3-3-3-|-2-2-2-2-2--2--2-2-|-0-0-0-0-0-0-0-|-0-0-0-0-0-0---0--|
|-0-0-0-0-0-0-0-|-3-3-3-3-3--3--3-3-|-1-1-1-1-1-1-1-|-1-1-1-1-1-1---1--|
|-0-0-0-0-0-0-0-|-2-2-2-2-2--2--2-2-|-2-2-2-2-2-2-2-|-0-0-0-0-0-0---0--|
|-0-0-0-0-0-0-0-|-0-0-0-0-0--0--0-0-|-2-2-2-2-2-2-2-|-2-2-2-2-2-2---2--|
|-2-------2-2---|-0-------0--0------|-0-------0-0---|-3-------3-3------|
|-3-------------|-x-----------------|-0-------------|-0----------------|


  H         +Q      E E   Q   E E   H         +Q      E E   Q     Q
|-----------------|---------------|-----------------|------------------|
|-----------------|---------------|-----------------|------------------|
|-----------------|---------------|-----------------|------------------|
|-5---------(5)---|-5p2-----------|-5---------(5)---|-5h7h==9-----7----|
|-----------------|-------5---5h7-|-----------------|------------------|
|-----------------|---------------|-----------------|------------------|
|
| E S S E E  E  E   E S S E E E E   E S S E E  E  E   E S S E S S E E
|-3-3-3-3-3--3--3-|-2-2-2-2-0-2-x-|-3-3-3-3-3--3--3-|-2-2-2-3-2-x-5-0--|
|-0-0-0-0-0--0--0-|-3-3-3-3-3-3-3-|-0-0-0-0-0--0--0-|-3-3-3-3-3-3-3-3--|
|-0-0-0-0-0--0--0-|-2-2-2-2-2-2-2-|-0-0-0-0-0--0--0-|-2-2-2-2-2-2-2-2--|
|-0-0-0-0-0--0--0-|-0-0-0-0-0-0-0-|-0-0-0-0-0--0--0-|-0-0-0-0-0-0-0-0--|
|-2-------2--2----|-0-------0-0---|-2-------2--2----|-0-------0-0-0----|
|-3---------------|-x-------------|-3---------------|-x----------------|


  H         E E   H         +E    E   E E   E E E E   Q     Q   Q
|---------------|-------------------|---------------|----------------|
|---------------|-------------------|---------------|----------------|
|---------------|-------------------|---------------|----------------|
|-5---------5-7-|-7---------(7)-----|-7p5-----------|-------5---7h===|
|---------------|-------------------|---------7---5-|-7--------------|
|---------------|-------------------|---------------|----------------|
|
| E S S E E E E   E S S E E  S  S E   E S S E E E E   E S S E E E E
|-3-3-3-3-3-3-3-|-2-2-2-2-2--2--2-2-|-0-0-0-0-0-0-0-|-0-0-0-0-0-0-0--|
|-0-0-0-0-0-0-0-|-3-3-3-3-3--3--3-3-|-1-1-1-1-1-1-1-|-1-1-1-1-1-1-1--|
|-0-0-0-0-0-0-0-|-2-2-2-2-2--2--2-2-|-2-2-2-2-2-2-2-|-0-0-0-0-0-0-0--|
|-0-0-0-0-0-0-0-|-0-0-0-0-0--0--0-0-|-2-2-2-2-2-2-2-|-2-2-2-2-2-2-2--|
|-2-------2-2---|-0-------0--0------|-0-------0-0---|-3-------3-3----|
|-3-------------|-x-----------------|-0-------------|-0--------------|


  H         +Q      +E  E   E E E E   H         +Q      +H            +E  E
|-----------------|-----------------|-----------------|----------------------|
|-----------------|-----------------|-----------------|----------------------|
|-----------------|-----------------|-----------------|----------------------|
|-9---------(9)---|-(9)-----9p7-5h7-|-5---------(5)---|-(5)-----------(5)----|
|-----------------|-----------------|-----------------|----------------------|
|-----------------|-----------------|-----------------|----------------------|
|
| E S S E E  E  E    E  S S E E E E   E S S E E  E  E    E  S S E S S  E  E
|-3-3-3-3-3--3--3-|--2--2-2-2-0-2-x-|-3-3-3-3-3--3--3-|--2--2-2-3-2-x--5--0--|
|-0-0-0-0-0--0--0-|--3--3-3-3-3-3-3-|-0-0-0-0-0--0--0-|--3--3-3-3-3-3--3--3--|
|-0-0-0-0-0--0--0-|--2--2-2-2-2-2-2-|-0-0-0-0-0--0--0-|--2--2-2-2-2-2--2--2--|
|-0-0-0-0-0--0--0-|--0--0-0-0-0-0-0-|-0-0-0-0-0--0--0-|--0--0-0-0-0-0--0--0--|
|-2-------2--2----|--0--------0-0---|-2-------2--2----|--0--------0-0--0-----|
|-3---------------|--x--------------|-3---------------|--x-------------------|


 Refren
  G           D           G       A
 4/4
  Chitara Ritm
  E S S  E  E E S S E E   E S S E E  E  S S E E
  | | |  |  | | | | | |   | | | | |  |  | | | |
  / / /  /  / / / / / /   / / / / /  /  / / / /

  Fluier:
  Q     +E  E H           E E   E E  E  E   Q
|-----------------------|-----------------------|
|-----------------------|-----------------------|
|-----------------------|-----------------------|
|-9-----(9)p7-7---------|-5-7---9-7-----7-------|
|-----------------------|-----------------------|
|-----------------------|-----------------------|
|
| Voce:
| Q     +E  E H           E E   E E +E  E   Q
|-----------------------|-----------------------|
|-----------------------|-----------------------|
|-----------------------|-----------------------|
|-9-----(9)p7-7---------|-5-7---9-7-(7)-7-------|
|-----------------------|-----------------------|
|-----------------------|-----------------------|
|
| Voci Secundare
| H           H           E E   E E +E  E   Q
|-----------------------|-----------------------|
|-----------------------|-----------------------|
|-7---------------------|-5-7---9-7-(7)-7-------|
|-------------7---------|-----------------------|
|-----------------------|-----------------------|
|-----------------------|-----------------------|


  Am      D7            G
  E S S E E  S  S E  E  E    E  S S E S S E S S E E
  | | | | |  |  | |  |  |    |  | | | | | | | | | |
  / / / / /  /  / /  /  /    /  / / / / / / / / / /

  E E   E E +E    E +E  E   +H            H
|-------------------------|--------------------------|
|-------------------------|--------------------------|
|-------------------------|--------------------------|
|-7-5---7-9-(9)---7-(7)-5-|-(5)----------------------|
|-------------------------|--------------------------|
|-------------------------|--------------------------|
|
| E E   E E +E    E +E  E   +H            H
|-------------------------|--------------------------|
|-------------------------|--------------------------|
|-------------------------|--------------------------|
|-7-5---4---------------5-|-(5)----------------------|
|---------7-(7)---5-(5)---|--------------------------|
|-------------------------|--------------------------|
|
| E E   E E +E    E +E  E   +H            H
|-------------------------|--------------------------|
|-------------------------|--------------------------|
|-9-7---5-7-(7)---5-(5)-5-|-(5)----------------------|
|-------------------------|--------------------------|
|-------------------------|--------------------------|
|-------------------------|--------------------------|


  G           D           G       A
  E S S  E  E E S S E E   E S S E E  E  S S E E
  | | |  |  | | | | | |   | | | | |  |  | | | |
  / / /  /  / / / / / /   / / / / /  /  / / / /

  Q     +E  E H           E E   E E  E  E   Q
|-----------------------|-----------------------|
|-----------------------|-----------------------|
|-----------------------|-----------------------|
|-9-----(9)p7-7---------|-5-7---9-7-----7-------|
|-----------------------|-----------------------|
|-----------------------|-----------------------|
|
| Q     +E  E H           E E   E E +E  E   Q
|-----------------------|-----------------------|
|-----------------------|-----------------------|
|-----------------------|-----------------------|
|-9-----(9)p7-7---------|-5-7---9-7-(7)-7-------|
|-----------------------|-----------------------|
|-----------------------|-----------------------|
|
| H           H           E E   E E +E  E   Q
|-----------------------|-----------------------|
|-----------------------|-----------------------|
|-7---------------------|-5-7---9-7-(7)-7-------|
|-------------7---------|-----------------------|
|-----------------------|-----------------------|
|-----------------------|-----------------------|


  Am      D7            G
  E S S E E  E  S S  E  E    E  S S E S S  E  S S E E
  | | | | |  |  | |  |  |    |  | | | | |  |  | | | |
  / / / / /  /  / /  /  /    /  / / / / /  /  / / / /

  E E   E E +E  E   +E  E   +E  e   e E   +E  E   q
|-------------------------|---------------------------|
|-------------------------|---------------------------|
|-------------------------|---------------------------|
|-7-5---7-9-(9)-7---(7)-5-|-(5)-5---5-5---(5)---------|
|-------------------------|-------------------7---5---|
|-------------------------|---------------------------|
|
| E E   E E +E  E    E  E   +H             H
|-------------------------|---------------------------|
|-------------------------|---------------------------|
|-------------------------|---------------------------|
|-7-5---4---------------5-|-(5)-----------------------|
|---------7-(7)-5----5----|---------------------------|
|-------------------------|---------------------------|
|
| E E   E E +E  E   +E  E   +H             H
|-------------------------|---------------------------|
|-------------------------|---------------------------|
|-9-7---5-7-(7)-5---(5)-5-|-(5)-----------------------|
|-------------------------|---------------------------|
|-------------------------|---------------------------|
|-------------------------|---------------------------|


  G           D           G           A
  E S S  E  E E S S E E    E  S S E E  E  S S E E
  | | |  |  | | | | | |    |  | | | |  |  | | | |
  / / /  /  / / / / / /    /  / / / /  /  / / / /

  E E    e  Q   E   e E   +E  E   e e +E  E   Q
|-----------------------|-------------------------|
|-----------------------|-------------------------|
|-----------------------|-------------------------|
|--------5--5-------5-5-|-(5)-----5-7-(7)-7-------|
|---7-----------7-------|-----7-------------------|
|-----------------------|-------------------------|
|
| Q     +E  E H            E  E   E E +E  E   Q
|-----------------------|-------------------------|
|-----------------------|-------------------------|
|-----------------------|-------------------------|
|-9-----(9)p7-7---------|--5--7---9-7-(7)-7-------|
|-----------------------|-------------------------|
|-----------------------|-------------------------|
|
| H           H            E  E   E E +E  E   Q
|-----------------------|-------------------------|
|-----------------------|-------------------------|
|-7---------------------|--5--7---9-7-(7)-7-------|
|-------------7---------|-------------------------|
|-----------------------|-------------------------|
|-----------------------|-------------------------|


  Am      D7            G
  E S S E E  E  S S  E  E    E  S S E S S  E  S S E   E
  | | | | |  |  | |  |  |    |  | | | | |  |  | | |   |
  / / / / /  /  / /  /  /    /  / / / / /  /  / / /   /

  E E   E e +E  e   +E  E   +H            +E  S S S S e
|-------------------------|-------------------------------|
|-------------------------|-------------------------------|
|-------------------------|-------------------------------|
|-7p5---7h9-(9)-7---(7)-5-|-(5)-----------(5)-5h7h9p7p5---|
|-------------------------|-------------------------------|
|-------------------------|-------------------------------|
|
| E E   E E +E  E   +E  E   +H             H
|-------------------------|-------------------------------|
|-------------------------|-------------------------------|
|-------------------------|-------------------------------|
|-7-5---4---------------5-|-(5)---------------------------|
|---------7-(7)-5---(5)---|-------------------------------|
|-------------------------|-------------------------------|
|
| E E   E E +E  E   +E  E   +H             H
|-------------------------|-------------------------------|
|-------------------------|-------------------------------|
|-9-7---5-7-(7)-5---(5)-5-|-(5)---------------------------|
|-------------------------|-------------------------------|
|-------------------------|-------------------------------|
|-------------------------|-------------------------------|


  G           D           G       A
  E S S  E  E E S S E E   E S S E E  E  S S E E
  | | |  |  | | | | | |   | | | | |  |  | | | |
  / / /  /  / / / / / /   / / / / /  /  / / / /

  Q     +E  E H           E E   E E  E  E   Q
|-----------------------|-----------------------|
|-----------------------|-----------------------|
|-----------------------|-----------------------|
|-9-----(9)p7-7---------|-5-7---9-7-----7-------|
|-----------------------|-----------------------|
|-----------------------|-----------------------|
|
| Q     +E  E H           E E   E E +E  E   Q
|-----------------------|-----------------------|
|-----------------------|-----------------------|
|-----------------------|-----------------------|
|-9-----(9)p7-7---------|-5-7---9-7-(7)-7-------|
|-----------------------|-----------------------|
|-----------------------|-----------------------|
|
| H           H           E E   E E +E  E   Q
|-----------------------|-----------------------|
|-----------------------|-----------------------|
|-7---------------------|-5-7---9-7-(7)-7-------|
|-------------7---------|-----------------------|
|-----------------------|-----------------------|
|-----------------------|-----------------------|


  Am      D7            G
  E S S E E  E  S S  E  E    E  S S E S S Q
  | | | | |  |  | |  |  |    |  | | | | | |
  / / / / /  /  / /  /  /    /  / / / / / /

  E E   E e +E  e   +E  E   +H.              Q
|-------------------------|----------------------|
|-------------------------|----------------------|
|-------------------------|----------------------|
|-7-5---7-5-(5)-7---(7)-5-|-(5)------------------|
|-------------------------|----------------------|
|-------------------------|----------------------|
|
| E E   E E +E  E   +E  E   +H.              Q
|-------------------------|----------------------|
|-------------------------|----------------------|
|-------------------------|----------------------|
|-7-5---4---------------5-|-(5)------------------|
|---------7-(7)-5---(5)---|----------------------|
|-------------------------|----------------------|
|
| E E   E E +E  E   +E  E   +H.              Q
|-------------------------|----------------------|
|-------------------------|----------------------|
|-9-7---5-7-(7)-5---(5)-5-|-(5)------------------|
|-------------------------|----------------------|
|-------------------------|----------------------|
|-------------------------|----------------------|

De aici improvizeaza fluierul pana la fade-out

... cam asta este cantecul - nu am scris versurile pentru ca e destul de 
simplu sa asculti melodia si sa auzi cum sta treaba... si oricum exista
 destule transcrieri cu versuri si acorduri :)

--------------------------------------------------------------------------------


Duration Legend
---------------
W - whole; H - half; Q - quarter; E - 8th; S - 16th; T - 32nd; X - 64th; a - acciaccatura
+ - note tied to previous; . - note dotted; .. - note double dotted
Uncapitalized letters represent notes that are staccato (1/2 duration)
Irregular groupings are notated above the duration line
Duration letters will always appear directly above the note/fret number it represents the
duration for.  Duration letters with no fret number below them represent rests.  Multi-
bar rests are notated in the form Wxn, where n is the number of bars to rest for.  Low
melody durations appear below the staff

Tablature Legend
----------------
 h   - hammer-on
 p   - pull-off
 b   - bend
 pb  - pre-bend
 r   - bend release (if no number after the r, then release immediately)
 /\\  - slide into or out of (from/to \"nowhere\")
 s   - legato slide
 S   - shift slide
 - natural harmonic
[n]  - artificial harmonic
n(n) - tapped harmonic
 ~   - vibrato
 tr  - trill
 T   - tap
 TP  - trem. picking
 PM  - palm muting
\\n/  - tremolo bar dip; n = amount to dip
 \\n  - tremolo bar down
 n/  - tremolo bar up
/n\\  - tremolo bar inverted dip
 =   - hold bend; also acts as connecting device for hammers/pulls
 <> - volume swell (louder/softer)
 x   - on rhythm slash represents muted slash
 o   - on rhythm slash represents single note slash

 |  - bar
||  - double bar
||o - repeat start
o|| - repeat end
*|  - double bar (ending)
 :  - bar (freetime)
 $  - Segno
 &  - Coda

Folk  

Ultima actualizare:  22.03.2009

Comentarii

Pentru a putea vota sau adăuda comentarii, e nevoie să te autentifici sau înregistrezi .

Acorduri