Cristocentric – M-atingi acum

(2 voturi)

Contribuție:  sammy81


E|--------------------------------------------------------------------------------------
B|--------------------------------------------------------------------------------------
G|---7s9--7~----5~---5---7-7~ ----7s9—7~---5-----5--7--7---5----------------------------
D|-----------9----7----------------------9-----7----------------------------------------
A|--------------------------------------------------------------------------------------
E|--------------------------------------------------------------------------------------


E|---------------------------------------------------------------------------------------
B|---------------------------------------------------------------------------------------
G|---5--5--12--12- 10--10--9--9--7--7----5--5----12---12--10—10—9--9s7-------------------
D|---------------------------------------------------------------------------------------
A|---------------------------------------------------------------------------------------
E|---------------------------------------------------------------------------------------

E|---------------------------------------------------------------------------------------
B|---------------------------------------------------------------------------------------
G|--7h9p7-----5------5--7-7---7s9-7~------5------5---7--7---5----------------------------
D|---------9----7----------------------9------7------------------------------------------
A|---------------------------------------------------------------------------------------
E|---------------------------------------------------------------------------------------

E|---------------------------------------------------------------------------------------
B|---------------------------------------------------------------------------------------
G|---3s5--5---7---12--12--10--10---7--7-----5--5--12--12--10--10--9---9s7--7-------------
D|---------------------------------------------------------------------------------------
A|---------------------------------------------------------------------------------------
E|---------------------------------------------------------------------------------------

E|---------------------------------------------------------------------------------------
B|---------------------------------------------------------------------------------------
G|---7s9--7---5---5s9--------------------------------------------------------------------
D|----------9----------------------------------------------------------------------------
A|---------------------------------------------------------------------------------------
E|---------------------------------------------------------------------------------------


                     
 Mai aproape de orice gand
           
 De orice suflare
                
Este      prezenta Ta
                                    
 Ma coplesesti cu iubirea Ta tot mai tare
                    
 Si  nu mi-e teama de nimic
                    
De bratul Tau eu sunt pazit


Refren:

                     
  M-atingi acum cu mana Ta
                    
  Fiorul Tau imi umple inima
                            
 Esti susur bland ce inima mi-alina
                                                         
 Imi umpli viata de lumina,Domnul Meu    x2



Mai aproape de orice gand 
De orice suflare
Este prezenta Ta
Ma coplesesti cu iubirea Ta tot mai tare
Si nu mi-e teama de nimic
De bratul Tau eu sunt pazit
M-atingi acum cu mana Ta
Fiorul Tau imi umple inima
Esti susur bland ce inima mi-alina
Imi umpli viata de lumina,Domnul Meu X4
M-atingi acum cu mana Ta
Fiorul Tau imi umple inima
Esti susur bland ce inima mi-alina
Imi umpli viata de lumïna,Domnul Meu



Legenda

s = slide
~ = vibrato
h = hammer-on
p = pull off

Creştine  

Ultima actualizare:  24.06.2009

Comentarii

Pentru a putea vota sau adăuda comentarii, e nevoie să te autentifici sau înregistrezi .

Acorduri