Coma – Mai Presus de Cuvinte (unplugged)

Contribuție:  TudorV


Intro:
    F#m  F#m       F#m  A    B
e|--2----2----2----2----0----2--|
B|--2----2----2----2----2----4--|
G|--2----2----2----2----2----4--|
D|--4----4----2----4----2----4--|
A|--4----4----2----4----0----2--|
E|--2----2----2----2----x----x--|


Strofe:

e|---------------|
B|--------0------|
G|----1-2---2----|
D|------------4--|
A|--4------------|
E|---------------|

E linistea ploii ce sugruma cuvantul
Si nelinistea frazei prea lungi
Iar timpul stagneaza patronand inertia
Si nevoia de necunoscut.
E copilul din tine ce-ar vrea sa retraiasca
Macar unele momente din basm
Desi ploaia se tanguie si-n el si afara
Si-o va mai face si mult dupa punct.

Refren:
    F#m  F#m       F#m  A    B
e|--2----2----2----2----0----2--|
B|--2----2----2----2----2----4--|
G|--2----2----2----2----2----4--|
D|--4----4----2----4----2----4--|
A|--4----4----2----4----0----2--|
E|--2----2----2----2----x----x--|

Am platit cu timp speranta-ntr-un alt fel de zi
Am platit cu timp
Sa uit de teama de-a mai...

 
    F#m  A    D5   B5
e|--2----5----5----2--|
B|--2----5----5----2--|
G|--2----6----7----4--|
D|--4----7----7----4--|
A|--4----7----5----2--|
E|--2----5----x----x--|

...privi catre o zi ce n-o astept
Simt ca mai e putin si am sa cred...

    F#m  F#m       F#m  A    B
e|--2----2----2----2----0----2--|
B|--2----2----2----2----2----4--|
G|--2----2----2----2----2----4--|
D|--4----4----2----4----2----4--|
A|--4----4----2----4----0----2--|
E|--2----2----2----2----x----x--|

...ca-s putine cuvinte

Strofa:

Ai putea sa gasesti citind printre randuri
Prilej de-a calca pe porunci
Si de-ar fi sa regret sa ma vindece timpul
Fiindca n-am avut rabdare sa-l pierd
Iar noul lui curs si-l va urma inocent
Si totul va parea de neatins
Iar gandul de ieri cineva-l va gasi
Poreclit de cerneala-ntr-un vers.

Refren:

Am platit cu timp speranta-ntr-un alt fel de zi
Am platit cu timp...
Sa uit de teama de-a mai privi catre o zi ce n-o astept
Simt ca mai e putin si am sa cred
Ca-s putine cuvinte...prea putine cuvinte..

 
Bridge:

    A    B    A    F#m
e|--5----7----5----2--|
B|--5----7----5----2--|
G|--6----8----6----2--|
D|--7----9----7----4--|
A|--7----9----7----4--|
E|--5----7----5----2--|

Sa (mai) privesc inapoi de sub ploaie si vant
Sa (mai) astept lucruri noi dintr-un soare infrant
Sa privesc inapoi peste drum de apus
Sa astept lucruri noi dintr-un soare ce l-am rapus..


(se termina cu F#m, A, B pe “dintr-un soare”)

Outro(se canta ca refrenul):

Si-am depus juraminte..mai presus de cuvinte
Sï-am sedus vorbe surde..spre un drum fara urme..
Mai presus de cuvinte.


Ochei cam asta e.Sper sa va ajute la ceva.Multa bafta si spor la treaba!

Rock  

Pentru a putea vota sau adăuda comentarii, e nevoie să te autentifici sau înregistrezi .