Pavel Stratan – Liliecii

(18 voturi)

Contribuție:  rasgeado


     

E||-----------------------------------------|
B||-----------------------------------------|
G||--------14--------------14---------14----|
D||--------------14---14---------14---------|
A||-----------------------------------------|
E||-----------------------------------------|

  
     
--------------------------------------------|
-----15--------------15---------15-15---15--|
-----------14---14---------14---------------|
--------------------------------------------|
--------------------------------------------|
--------------------------------------------|


   
-----------------------------------------|
-----------------------------------------|
--12--------------------12---------12----|
--------12----12---12---------12---------|
-----------------------------------------|
-----------------------------------------|

                             
--------------------------------------------||
--------------------------------------------||
----12-------------12---------12-12---12----||
---------12---12---------12-----------------||
--------------------------------------------||
--------------------------------------------||


Noaptea,

Când luna-i plină-afară

şi liliecii zboară
             
Eu stau te-aştept pe tine 

Bade,
De undeva apare
Speranţa-aşa-i de mare
Da nu mai pot, mă doare

Stau de mult, mai mult nu stau
Ce am vrut, mai mult nu vrau
Numai tu si din lume
Ne-nţelegem de minune
Tie-ti pare, imi pare ca, ca toti la deal se luneca
Da' tot se vede de departe
Ce-a meu e pus deoparte.

	Refren

Fara ca sa ma pornesc
Fac un pas da' ma opresc
Singur nu stiu ce-i cu mine
De ma gandesc numa' la tine
Da' cred ca inaintea mea
De Dumnezeu care nu se teme
O dovedit altcineva
Cu un ceas de vreme mai devreme

	Refren

Cat de tare as vrea si vreau
Sa te pot vedea amu
Cred ca eu n-as mai fi eu
Si nici tu n-ai mai fi tu
As zbura de bucurie 
Sus in cer si m-as intoarce
Inapoi cu stele o mie
Pentru tine ce n-as face

	Refren

Cine-ar fi in locul meu
Sa te-astepte, numai eu
Da' in locul tau nu vine, cine
Numa' tu cu tine
De-as ave' ca in povesti
Tot ti-asa da, de vrei mai cere-ti
Numa' nu uita sa cantaresti ce-ti dau
Da' ia ce meriti

	Refren

Obositi cum sunt, te cata
Ochii mei umflati ca mingea
Si m-as duce amu da' daca
Tu vii si eu nu-s aicea
Uite, de-amu dimineata lumineaza imprejurul
Si nici luna nu se vede
S-o intors si ea cu fata

	Refren

Tare...

solo (acelasi ca si la intro)

Da' nu mai pot, ma doare tare...

Pop  

Comentarii

Pentru a putea vota sau adăuda comentarii, e nevoie să te autentifici sau înregistrezi .

Acorduri