Holograf – Te voi iubi mereu

(4 voturi)

Contribuție:  DaVio


Intro x2

|---------0----|-(0)--0--------|-----0--(0)----|-0-------------|
|-------1-1----|-(1)--1--------|---1-1--(1)----|-1----------1--|
|-----0---0----|-(0)--0--------|-0---0--(0)----|-2--------0----|
|---2----------|------2------2-|---------------|-2------2------|
|-3------------|------3----3---|---------------|-0----3--------|
|--------------|---------------|---------------|---------------|

|-0------1--|-(1)-------------|-1----------*|
|-1------1--|-(1)--------1----|----1-------*|
|-0------2--|-(2)------2------|-------2----*|
|--------3--|-(3)----3-----3--|------------*|
|--------3--|-(3)--3----------|------------*|
|-----------|-----------------|------------*|



              
Poate ca nici nu ma cunosti
                           
Poate n-ai nici cum sa ma ma recunosti
                                        
Pana acum pentru mine ai fost o zana buna
                                        
Poate ca va veni o zi cand voi stii cum sa iti pot vorbi
                           
Pana atunci fiecare ceas e o saptamana.


               
Iti voi aduce in vis comori
                
Si vom zbura sus printre nori
                     
Asculta-ma si crede-ma acum.


 Refren:

              
Te voi iubi, te voi iubi
             
Oricat de greu ti-ar fi sa crezi

Astepta si-ai sa vezi.
                 
Te voi iubi, te voi iubi
                           
Si orice chip in jurul tau voi fi chiar eu
 
Te voi iubi mereu.



Zilele vor veni zambind, noptile vor fi de argint

Si orice nor va fi doar un semn de vreme buna

Orice lucru pe care-l vrei il gasesti doar in ochii mei

Si orice clipa ne va gasi doar impreuna

solo:

e|-----5-7-8-8~~----5-7-8-5-7---5~~----------------------------------------------------------|
B|----5------------5----------8---------6p5p3h5~~--------------------------------------------|
G|---5------------5--------------------------------------------------------------------------|
D|--7----------------------------------------------7p5p4h5~~---0-2-4-4/5-4-5-5/7-5-4h5p4-2~~-|
A|-------------------------------------------------------------------------------------------|
E|-------------------------------------------------------------------------------------------|


e|---12\---8\-------------------------------------------------------------------5-7-8--------|
B|---13\--10\--10\-8h10-----------------------------5--6--8--5--6---5-----5-6-8--------------|
G|--------------9\------9-7h9-5---7/9-5-5-7-5~~-------------------7---5-7--------------------|
D|------------------------------7------------------------------------------------------------|
A|-------------------------------------------------------------------------------------------|
E|-------------------------------------------------------------------------------------------|



e|--7-8-8/10--8~~~---7h8p7-----------------|
B|-------------------------8---------------|
G|---------------------------7-5-7-5~~-----|
D|-----------------------------------------|
A|-----------------------------------------|
E|-----------------------------------------|



Iti voi aduce in vis comori

Si vom zbura sus printre nori

Asculta-ma si crede-ma acum.


Refren...

Pop-Rock  

Comentarii

Pentru a putea vota sau adăuda comentarii, e nevoie să te autentifici sau înregistrezi .

Acorduri