Celelalte Cuvinte – Umbra mea

Contribuție:  ovi_bratu


(Tuning: ½ jos)

Intro:
Eb---------------------------------------—------------------------------
Bb----------------------17--------------------------------17------------
Gb------------16--------------16----------------16--------------16------
Db--14--17-14-------14-----17---------14--17-14-------14-----17---------
Ab----------------------------------------------------------------------
eb----------------------------------------------------------------------

Eb---------3--5--2----3-2-0----------3--5—-2----------------------------
Bb----------------------------------------------------------------------
Gb----------------------------------------------------------------------
Db-------0-------------------------0------------------------------------
Ab--2--2----------------------2--2--------------------------------------
eb----------------------------------------------------------------------

			
			
			

                         
O ploaie de vara ce doar s-a oprit
                        
Si strazile ude ce pas dupa pas
                         
Fara sa stiu, in urma las, neobosit

			
			
			

O umbra subtire si lunga ce iar
Alaturi de mine o am de curand
Incetisor, alunecand, pe trotuar

Em	D	Em	D
G	D	C	D
G	D	C	D
 
(Aici se schimba ritmul melodiei)

Em          C   G       D
Stingher oricum eram de cand
Em      C  G            D
Nechibzuit mi-am pus in gand
Am       Em          D
Umbra de jos sa mi-o vand

Em	C	G	D	(x2)

Amicii mei ce mi-au facut
N-au vrut sa-mi dea cand le-am cerut
Umbrele cu imprumut

Em	C	G	D	(x2)

Umbrele cu imprumut
Umbrele, imprumut

(Din nou se schimba ritmul melodiei)

Em	C	Em	D	(x4)

Umbra mea, adevarata
Umbra mea, rascumparata

Em	C	Em	D	(x2)

Umbra mea, amanetata
Umbra mea, de altadata

Em	C	Em	D	(x4)

Rock  

Comentarii

Pentru a putea vota sau adăuda comentarii, e nevoie să te autentifici sau înregistrezi .

Acorduri