Daniel Iancu – Vine Valu` Imi Ia Calu` [solo]

(6 voturi)

Contribuție:  StewpidME


Mai e o versiune a melodiei dar asta imi suna mai bine..
Imi cer scuze daca am gresit ceva dar nu am nici 4 luni de cand cant la chitara :D ..

E|0--------------|----------|----------------------------|------------------||
B|-3-1-0---3-1-0-|-----0----|----------------0-3-1-1-0---|---0-0-0-1-0-----0||
G|--------------2|0-0-0-2-0-|---------0-2-2-2---------2-2|2-2---------2-1-2-||
D|---------------|---------2|0-2-3-3-3-------------------|------------------||
A|---------------|----------|----------------------------|------------------||
E|---------------|----------|----------------------------|------------------||

E|0--------------|----------|----------------------------|------------------||
B|-3-1-0---3-1-0-|-----0----|----------------0-3-1-1-0---|---0-0-0-1-0---0--||
G|--------------2|0-0-0-2-0-|---------0-2-2-2---------2-2|2-2---------2-1—2-||
D|---------------|---------2|0-2-3-3-3-------------------|------------------||
A|---------------|----------|----------------------------|------------------||
E|---------------|----------|----------------------------|------------------||

Ultima actualizare:  27.02.2010

Comentarii

Pentru a putea vota sau adăuda comentarii, e nevoie să te autentifici sau înregistrezi .