Ștefan Hrușcă – Colindul Cerbului

Contribuție:  dark_hood66


Stefan Hrusca - Colindul cerbului (colind)


Indicatii ciupituri:

E||--------0------------|--------0------------||
B||-----0----------0----|-----0----------0----||
G||--------------0---0--|--------------0---0--||
D||--0------------------|--0------------------||
A||-----------0---------|-----------0---------||
E||---------------------|---------------------||


Indicatii transpunere de acorduri:

E||--------6------------|--------5------------||
B||-----8----------8----|-----7----------7----||
G||--------------7---7--|--------------7---7--||
D||--5------------------|--7------------------||
A||-----------5---------|-----------5---------||
E||---------------------|---------------------||
   Dm transpus pe fr.5    A transpus pe fr.5


Folositi capodastru pe fretul 5 ca sa sune ca originalul. Dupa fretul 5 transpuneti acordurile mentionate.


Mandru-si canta-un cerb in codru

Haida ler, leru-i ler
                       
Mandru-si canta de nu-i modru

Vanatoru s-o sculatu
Haida ler, leru-i ler
Pusca-n mana si-o luatu

Dupa cerb o alergatu
Haida ler, leru-i ler
Sus in munte l-o aflatu

Stai fartat nu ma-mpusca
Haida ler, leru-i ler
Lasa mie viata

Ca nu-s fiara fiarelor
Haida ler, leru-i ler
Ci-s vataful oilor

Oilor, cornutelor
Haida ler, leru-i ler
Din varfutu muntilor

Muntilor, caruntilor
Haida ler, leru-i ler
Muntilor, caruntilor

Colinde  

Ultima actualizare:  26.06.2009

Pentru a putea vota sau adăuda comentarii, e nevoie să te autentifici sau înregistrezi .

Acorduri