Ștefan Hrușcă – Florile Dalbe (versiune originala)

(3 voturi)

Contribuție:  dark_hood66


Stefan Hrusca - Florile dalbe (colind)


Indicatii ciupituri:

- se foloseste capodastru pe tasta 2 si se transpune Dm, deci o sa avem asa:

        Dm      Variatii din Dm       Dm          Dm      Variatii din Dm       Dm
 2
E||------1---------3---------0---------1----|------1---------3---------0---------1----||
B||--------3---------3---------3---------3--|--------3---------3---------3---------3--||
G||----2---------2---------2---------2------|----2---------2---------2---------2------||
D||--0---------0---------0---------0--------|--0---------0---------0---------0--------||
A||-----------------------------------------|-----------------------------------------||
E||-----------------------------------------|-----------------------------------------||

Dm
Scoala gazda din patut
Florile dalbe, 
Si ne da un colacut 
Florile, florile dalbe 

Ca mamuca n-o facut
Florile dalbe 
Sita rara n-o avut 
Florile, florile dalbe 

Pe cand sit-o capatat 
Florile dalbe 
Covata i s-o crepat 
Florile, florile dalbe 

L-o sfadit mama pe tata
Florile dalbe
De ce s-o crepat covata
Florile, florile dalbe

Cand covata o lipit 
Florile dalbe 
Cuptorul i s-o urnit 
Florile, florile dalbe 

Cand cuptorul o pornit
Florile dalbe 
Anul Nou o si zanit 
Florile, florile dalbe

        Dm
 2
E||------1---------1----|------1---------1----||
B||--------3---------3--|--------3---------3--||
G||----2---------2------|----2---------2------||
D||------------0--------|------------0--------||
A||--0------------------|--0------------------||
E||---------------------|---------------------||

Florile, florile dalbe
Florile, florile dalbe
S-ajungeti multe seri frumoase, ca seara din neaseara, si ca ziua de maine!


Observatii:
1. Melodia este conform originalului. Pentru a suna astfel acordati chitara
(din EADGBE) cu 1 ton mai sus sau, daca aveti, folositi capodastru pe tasta 2.
2. Ritmul ciupiturilor este alert (asculta melodia).

Garantat, daca va place melodia lui Hrusca, o sa fiti si foarte incantati
de transpunere si o sa dea bine de sarbatori.

Colinde  

Ultima actualizare:  28.05.2009

Comentarii

Pentru a putea vota sau adăuda comentarii, e nevoie să te autentifici sau înregistrezi .