Chester – Poza ta

(1 voturi)

Contribuție:  ghit razvan


AM VAZUT CATEVA VARIANTE LA PIESA ASTA SI NU MI-AU PREA PLACUT...

INTRO:

Ascultati piesa ca sa vedeti tiparul pentru batai:

CHITARA I

      D5    B5    G5     A
e|-----------------------------|
B|-----------------------------|
G|----7-----4------------------|
D|----7-----4------5-----7-----|
A|----5-----2------5-----7-----|
E|-----------------3-----5-----|


CHITARA II

 |     D       F#  (SE REPETA DE 3 ORI) |   E        F#  (SE REPETA 1 DATA)  |
e|--------------------------------------|------------------------------------|
B|--------------------------------------|------------------------------------|
G|----7777777/11-11-11-11-11-11-11------|---9999999/11-11-11-11-11-11-11-----|
D|----xxxxxxx/x--x--x--x--x--x--x-------|---xxxxxxx/x--x--x--x--x--x--x------|
A|----5555555/9--9--9--9--9--9--9-------|---7777777/9--9--9--9--9--9--9------|
E|--------------------------------------|------------------------------------|


Pe versuri, CHITARA I merge pe aceleasi acorduri ca si in INTRO

CHITARA II e cam asa:

e|------------|------------------|
B|------------|------------------|
G|--77/99-777-|--7/1111-9999--7--|
D|--xx/xx-xxx-|--x/x-x--xxxx--x--|
A|--55/77-555-|--5/9-9--7777--5--|
E|------------|------------------|

                   
E prea tarziu pentru mine,oricum ..
                                          
Ce usurare ar fi sa gandesti asa acum despre mine
                                          
Stau si pun cap la cap orice detaliu legat de tot ce s-a'ntamplat..


SE REPETA PARTEA DIN INTRO


                   
Caci nervii mei au cedat de plictiseala
                           
Stau zile'ntregi treaz de atata oboseala
                     
In timp ce tu nici nu stii ca mai traiesc,
                         
Mi-am castigat privilegiul sa te urasc.


          
Si e bine, parca e mai cald
                     
Sa vezi totul in rosu, negru si alb
                    
In timp ce tu nici nu stii ca mai traiesc,
                           
Stiu unde stai : ascunde-te caci sosesc!



                     
REF: Respir doar ca sa te enervez
                          
     Si ma afund in spatiul gol ce tu-l creezi
                     
     Iata ca vin sa iti indes undeva
                         
     Telefonul, scrisorile sï poza ta 


Se repeta partea de INTRO apoi se trece la un BRIDGE:

     PARTEA I                   PARTEA II
e|-----------------------|---------------------|
B|-----------------------|---------------------|
G|--9L--7-6---9L--11-9---|--10/111111--7-66----|
D|-----------------------|--x-/x-x-x---x-xx----|
A|-----------------------|--8-/9-9-9---5-44----|
E|-----------------------|---------------------|

Intra CHITARA I pe acordurile din INTRO cu PALM MUTE, 
iar CHITARA II repeta PARTEA II din BRIDGE.


REF:...

Ultima actualizare:  30.05.2009

Pentru a putea vota sau adăuda comentarii, e nevoie să te autentifici sau înregistrezi .

Acorduri