Trooper – Un Loc (Original)

(1 voturi)

Contribuție:  CJ Radu


Trooper - Un loc
                                                        
Legenda: ~ = Apogiatura, tril
         - = Slide


Tunning: Eb

Solo Balaurul: 

    3  2   2  1  3- 3  1  4    1 2  1~ 4  2   3  1  1  1  2- 2  1   1  2  4  2~ 1- 1
Eb  ---------------------------14-15-14-------------------------------------------------
Bb -----------15-17-19-15-17-----------17-15-----------14-15-17-14--15-17-19-17-15-14-- 
Gb --------16---------------------------------------14---------------------------------
Db ----16----------------------------------------14------------------------------------
Ab -17----------------------------------------16---------------------------------------
Eb ------------------------------------------------------------------------------------

    Bbm                                       Ab
 

    3  1  1  1  4  1  1  1  3  2 2 1  4 1 2 2 1 4  1 4  1  4  2   1  2  4  2~ 1- 1
  ------------------------------------------------------------12--10-12-14-12-10-9--
  -----------12-15-12--------------8-10-8---------------11-14-----------------------
  --------12----------12---------9--------9--------9-12-----------------------------
  -----12----------------12----9------------9-8-11----------------------------------
  --14----------------------10------------------------------------------------------
  ----------------------------------------------------------------------------------

  Gb                      Ebm               F


Notele cantate de Balaurul sunt tertele notelor cantate de Popa

Solo Popa:

 1  4  3  3  1- 1  2  1  2  4  2~ 1  3  1  4  3  3  1- 1  2   3  1  2  1~ 3 1 
  ----------------------------------------------------------------------------------
  -------------14-15----14-15-17-15-14----------------12-14--------14-15-14---------
  ----------16-------16----------------16----------14-------14--16----------16-14---
  -------16-------------------------------------14----------------------------------
  -14-17----------------------------------12-16-------------------------------------
  ----------------------------------------------------------------------------------

  
 1  4  3  3  3  3  3  4  1 4  3 3 2 3 3  4 4  1 4  1  4  1  4  1  2  4  2~ 1- 1
  ----------------------------------------------------------------------------------
  -------------12-------------------8----------------------11-14-12-14-16-14-12-11--
  ----------12----12--------------9---9--------------9-12---------------------------
  -------12----------12---------9-------9-------8-11--------------------------------
  -10-14----------------14-7-10-----------10-10-------------------------------------
  ----------------------------------------------------------------------------------

  Gasiti-va un partener cu o chitara. Play these motherf*ckers here in harmony !!!

Rock  

Ultima actualizare:  28.06.2009

Pentru a putea vota sau adăuda comentarii, e nevoie să te autentifici sau înregistrezi .