Compact – Chipul Tau

(1 voturi)

Contribuție:  Dan Cosmin


chords (acorduri)

Am          F          C         G

E|--0--   E|--1--   E|--0--   E|--3--   
B|--1--   B|--1--   B|--1--   B|--3--   
G|--2--   G|--2--   G|--0--   G|--4--   
D|--2--   D|--3--   D|--2--   D|--5--   
A|--0--   A|--3--   A|--3--   A|--5--   
E|--x--   E|--1--   E|--x--   E|--3--   

Power chords  

 A5         F5         C5        G5       Bb5
E|--x--   E|--x--   E|--x--   E|--x--   E|--x--
B|--x--   B|--x--   B|--x--   B|--x--   B|--x--
G|--x--   G|--x--   G|--5--   G|--x--   G|--x--
D|--7--   D|--3--   D|--5--   D|--5--   D|--8--
A|--7--   A|--3--   A|--3--   A|--5--   A|--8--
E|--5--   E|--1--   E|--x--   E|--3--   E|--6--


INTRO:      x2 (toate power chords)

pasaj strofa dupa intro (chitara solista)

E|--------------------
B|-----------------3--
G|--2--0--2-----0-----
D|-----------2--------
A|--------------------
E|--------------------

Riff strofa (chitara solista)     

E|--------------------------
B|-----------------------3--
G|--------2--0--2-----0-----
D|--0--2-----------2--------
A|--------------------------
E|--------------------------

Acorduri strofa 


E noapte-afara, e tarziu,

pe cerul plin de stele

Se vede parca chipul tau

in tot si tot ca ele

Ating cu mana fata ta,
                                             
traiesc un vis ce nu il pot uita, nu-l pot uita


[Din nou....]

Privesc in sus, privesc uimit,
cum vine catre mine
Un inger alb cu ochi frumosi
ce seamana cu tine
Ating cu mana fata ta,
traiesc un vis ce nu il pot uita, nu-l pot uita

Refren

                        
Parca-ti vad frumosul chip

Cate nopti ti-as fi dorit
                                         
Sa iti spun cat te-am iubit, cat te-am iubit
                       
Sa cobor din vis as vrea

Doar o clipa de-as putea

                               
Sa te tin in mana mea,in mana mea

Bridge


Clopotul ce bate rar

in viata cea pustie
                    
Ma face iar sa-mi amintesc

ca nu esti langa mine

Guitar solo pe acordurile strofei:

E|----------------------------------------------------------------
B|-20---------20-----20-----20----22^25"""""-15^17^15--13-15"""---
G|-19^21"""---19^21--19^21--21^19---------------------------------
D|----------------------------------------------------------------
A|----------------------------------------------------------------
E|----------------------------------------------------------------

E|----------------------------------------------------------------
B|----------------------------------------------------------------
G|----------------7^9--7^9^7--------------------------------------
D|--------7--10--------------10--7--------------------------------
A|-7--10---------------------------10--7--------------------------
E|---------------------------------------6/8""""------------------

E|------------------------------------------------------------------------
B|------------------------------------------------------------------------
G|-------19---------------------------------------------------------------
D|----14-----14-12-14--13-12-13-13--12-10-12-12--10----10-10--------------
A|-/19----------------------------------------------12-------12-10--12-12-
E|------------------------------------------------------------------------

E|------------------------------------------------------------------------
B|------------------------------------------------------------------------
G|----------------------------------------17^19--17-14--------------------
D|------12^14-12-10------------------------------------17-14--------------
A|--10--------------12-10------------------------------------17-15"""-----
E|-------------------------12-11-10/8/5-----------------------------------

E|--------17-17-20-17--------17-20-17---------------------20-17----------------------------------
B|--20^22--------------20^22----------20--17----17--20-17-------20-17--17-15-17-15---------------
G|-------------------------------------------19---- -------------------------------17-17"""------
D|-----------------------------------------------------------------------------------------------
A|-----------------------------------------------------------------------------------------------
E|-----------------------------------------------------------------------------------------------



Ating cu mana fata ta,
                                           
traiesc un vis ce nu il pot uita, nu-l pot uita

R...

Parca-ti vad frumosul chip
Cate nopti ti-as fi dorit
Sa iti spun cat te-am iubit, cat te-am iubit
Sa cobor din vis as vrea
Doar o clipa de-as putea

Sa te tin in mana mea,in mana mea


Din nou intro:     x2 (toate power chords)

Parca-ti vad frumosul chip
Cate nopti ti-as fi dorit!

Parca-ti vad frumosul chip
Cate nopti ti-as fi dorit!

LEGENDA
^ Bend Up
/ Slide
"" Vibrato

Rock  

Ultima actualizare:  06.07.2009

Pentru a putea vota sau adăuda comentarii, e nevoie să te autentifici sau înregistrezi .

Acorduri