Adrian Ivanițchi – Amintirea paradisului

(2 voturi)

Contribuție:  vasib


Initial se canta fara versuri, ca si intro

                             
E |----3--------3--------3--|-----3--------3--------3--|-
B |-------0--------0--------|--------0--------0--------|-
G |----------0--------0-----|-----------0--------0-----|-
D |-------------------------|--------------------------|-
A |-------------------------|--------------------------|-
E |-3-----------------------|--2-----------------------|-
                     Cand      eram mai tanar   si  la

                            
E |----3--------3--------3--|-----3--------3-----------|-
B |-------0--------0--------|--------0--------0--------|-
G |----------0--------0-----|--------------------------|-
D |-------------------------|--2--------0--------------|-
A |-------------------------|--------------------2--0--|-
E |-0-----------------------|--------------------------|-
    trup          curat

                             
E |----3--------3--------3--|-----3--------3--------3--|-
B |-------0--------0--------|--------0--------0--------|-
G |----------0--------0-----|-----------0--------0-----|-
D |-------------------------|--------------------------|-
A |-------------------------|--------------------------|-
E |-3-----------------------|--2-----------------------|-
                      Intr-o   noapte floarea mea  eu

                             
E |----3--------3--------3--|-----3--------3--------3--|-
B |-------0--------0--------|--------0--------0--------|-
G |----------0--------0-----|--------------------------|-
D |-------------------------|--------------------2-----|-
A |-------------------------|--2--------0--------------|-
E |-0-----------------------|--------------------------|-
    te-am    visat

                              
E |----0--------0--------0--|-----------2-h3p3-----2-----|-
B |-------1--------1--------|--------3----------3-----3--|-
G |----------0--------0-----|-----2----------------------|-
D |-------------------------|--0-------------------------|-
A |-3-----------------------|----------------------------|-
E |-------------------------|----------------------------|-
         Infloreai       fara pacat          intr-un

                             
E |----3--------------------|----0--------0--------0--|-
B |-------0-----------------|-------1--------1--------|-
G |----------0-----0-----0--|----------0--------0-----|-
D |-------------------------|-------------------------|-
A |-------------0-----2-----|-3-----------------------|-
E |-3-----------------------|-------------------------|-
    pom         a  -  deva -  rat

                            
E |----0--------0--------0--|----3--------3--------3--|-
B |-------1--------1--------|-------0--------0--------|-
G |----------0--------0-----|----------0--------0-----|-
D |-------------------------|-------------------------|-
A |-3-----------------------|-------------------------|-
E |-------------------------|-3-----------------------|-
                      Cand    eram    mai      tanar

                          
E |-----3--------3--------3--|----3--------3--------3--|-
B |--------0--------0--------|-------0--------0--------|-
G |-----------0--------0-----|----------0--------0-----|-
D |--------------------------|-------------------------|-
A |--------------------------|-------------------------|-
E |--2-----------------------|-0-----------------------|-
        si la     trup       curat

                             
E |-----3--------3-----------|----
B |--------0--------0--------|----
G |--------------------------|(Se continua fara pauza)
D |--2--------0--------------|----
A |--------------------2--0--|----
E |--------------------------|--3-


                     	
Cand eram mai tanar si la trup curat 
	                 	
Intr-o noapte floarea mea eu te-am visat 
	    	             	      	 
Infloreai fara pacat Intr-un pom adevarat 
    	                     	
Cand eram mai tanar si la trup curat 


Nu stiam ca esti femeie eu barbat
Langa tine cu sfiala m-am culcat
Si dormind eu am visat tu visand ai lacrimat
Cand eram mai tanar si la trup curat

E trecuta vremea aceea de acum
Carnea noastra doar mai stie al ei parfum
Poamele ce-n pom azi stau gustul carnii tale-l au
Si cad toate maine putrede pe drum

Fa-l sa fie Doamne Sfinte numai om
Pe acel care ne-a ispitit sub pom
Si cand pomul flori va da fa sa-i cada carnea grea
Cum cadea-va dupa cantec mana mea


	      	                  	      	 
Si cand pomul flori va da fa sa-i cada carnea grea 
   	                  	
Cum cadea-va dupa cantec mana mea.

Folk  

Ultima actualizare:  08.07.2014

Pentru a putea vota sau adăuda comentarii, e nevoie să te autentifici sau înregistrezi .

Acorduri