Alexandru Andrieș – Cea mai frumoasa zi

(2 voturi)

Contribuție:  vasib


Intro/versuri:

  Ebmaj7        Fm
e|-----3------|-----1-------|
B|-----3------|---1-1-------|
G|---0--0-----|-1----1------|
D|-1----------|-------------|
A|------------|-------------|
E|------------|-------------|
   Un fel de-a  mai lungi

  Bb            Ebmaj7
e|-----1------|-----3-------|
B|-----3------|-----3-------|
G|---3--3-----|---3--3------|
D|------------|-1-----------|
A|-1----------|-------------|
E|------------|-------------|
   Cea mai      frumoasa zi

   Cm           Ab
e|-----3------|-----4-------|
B|-----4------|-----4-------|
G|---5--5-----|---5--5------|
D|------------|-------------|
A|-3----------|-------------|
E|------------|-4-----------|
   Ar fi daca   m-ai putea

   G             Cm
e|-----3------|------3------|
B|-----3------|------4------|
G|---4--4-----|----5--5-----|
D|------------|-------------|
A|------------|--3----------|
E|-3----------|-------------|
       Min ----- ti.

Final:

   Cm            Gm
e|------3-----|-----3-------|
B|------4-----|-----3-------|
G|----5--5----|---3--3------|
D|------------|-------------| (x2)
A|--3---------|-------------|
E|------------|-3-----------|


Un fel de-a mai lungi
Cea mai frumoasa zi
Ar fi daca m-ai putea
Minti.

Ai da ceasul inapoi
Ai fierbe doua oua moi
Mi-ai spune ca-n casa,
Suntem doar noi.

Tacerea te-ar ajuta
Sa scapi de intrebarea mea
Din toate intrebarile
Cea mai grea.

Cand seara s-ar face gri
Nu te-ai mai putea stapani
Din baie la telefon,
Ai vorbi.

Cu glasul intunecat
Cu aerul imbufnat
Ai da orice numai sa ma vezi,
Plecat.

Si atunci te-ntreb: 'mai stii?'
Cea mai frumoasa zi
A fost la inceput, cand
Nu ma puteai minti.

Blues  

Ultima actualizare:  08.07.2014

Pentru a putea vota sau adăuda comentarii, e nevoie să te autentifici sau înregistrezi .