Dan Andrei Aldea – Brad batrin

(1 voturi)

Contribuție:  sodel


Chitara acordata in Open E: E,B,G#,E,B,E

Glissando pe coarda 4 intervale 2-4,4-5

ACORDURILE UTILIZATE:
      E A B7 
E ||-------2-||
B ||----5----||
G#||----5--1-||
E ||----5--2-||
B ||---------||
E ||---------||
					  
Pe aceasta succesiune se cinta si versurile:

        E(no5) E(no5)  A  E(no5)   B7(no5) E(no5) B7(no5)
E ||----0--------0-----0------0---------2-----0-----2||
B ||----0--------0-----5------0---------0-----0-----0||
G#||----0--------0-----5------0---------1-----0-----1||
E ||-2L-4-----2L-4--4L-5-2L-4-0-------0-2--2L-4--0L-2||  s.a.m.d.
B ||-----------------------------0h-2----------------||
E ||-------------------------------------------------||
		  
A fost taiat un brad batran
Fiindca facea prea multa umbra
Si-atuncea din padurea sumbra
Se auzi un glas pagan.

O, voi ce-n soare cald traiti
Si ati rapus stramosul nostru
Sa nu va strice rostul vostru,
De ce sinteti asa grabiti?

In anii multi cit el a fost,
De-a lungul ceasurilor grele,
Sub paza crengilor rebele,
Multi au aflat un adapost.

Mosneagul stind pe culme drept,
A fost la drum o calauza
Si-n vremea aspra si ursuza,
El cu furtunile-a dat piept.

Folos aduse cit fu viu
Si mort acuma, cand se duse,
Ce alta poate-a va aduce
Decit doar inca un sicriu.

Ultima actualizare:  16.07.2009

Pentru a putea vota sau adăuda comentarii, e nevoie să te autentifici sau înregistrezi .