Alexandru Andrieș – Cea mai frumoasa zi

(3 voturi)

Contribuție:  sodel


Dm(5) Gm C(3) F(5) A Dm
E||--5-----3--3----0--1--||
B||--6-----3--5----2--3--||
G||--7-----3--5----2--2--||
D||--7-----5--5----2--0--||
A||--x-----x--x----0-----||
E||--x-----x--x----------||
		
                     
Un fel de-a mai lungi,   cea mai frumoasa zi
                 
Ar fi daca m-ai putea minti.
                        
Ai da ceasul inapoi,  ai fierbe doua oua moi 
                            
Mi-ai spune ca-n casa  suntem doar noi

Tacerea te-ar ajuta sa scapi de-ntrebarea mea
Din toate-ntrebarile,cea mai grea
Cand seara s-ar face gri,nu te-ai mai putea stapani
Din baie la telefon,ai vorbi.

Cu glasul intunecat,cu aerul imbufnat
Orice numai sa ma vezi plecat.
Si-atunci te-ntrebi mai stii,cea mai frumoasa zi
A fost la-nceput cand nu ma puteai minti


O varianta foarte apropiata de cea reala:

I                     II   
    Cm Fm7 Bb7 G/Eb       Cm C#M7  G7

E||--3--1---1--3----------x---x----x----||
B||--1--1---3--3----------3---6----3----||
G||--0--1---1--0----------4---5----0----||
D||--1--x---x--1----------4---6----3----||
A||--x--x---1--x----------3---4----2----||
E||--x--1---1--x----------x---4----3----||

vezi si: http://www.youtube.com/watch?v=oB9DjDbyQ1c

Atentie:
- la a doua parte nu se foloseste deloc coarda E (subtire).
- Fm7 se ia cu barre si degetul mare pe F
- Bb7 provine din A7 dar nota de pe coarda D nu intereseaza si este mai usor de trecut in acordul urmator (G/Eb7)
- C#M7 se ia cu barre pentru usurinta dar coarda E nu se foloseste

Blues  

Ultima actualizare:  11.07.2014

Comentarii

Pentru a putea vota sau adăuda comentarii, e nevoie să te autentifici sau înregistrezi .

Acorduri