Mircea Baniciu – Amintiri

(4 voturi)

Contribuție:  sodel


La inceput (ciupit dupa dorinta):

        Em D C G Gdim Cadd9 G
E||-----7--5-3-3-0------0---3-||
B||-----8--7-5-3-2------1---3-||
G||---------------------------||
D||---------------------------||
A||-----7--5-3-2-1------0---2-||
E||-3-2---------------------3-||

	sau

        Em7 D C G Gm Dsus4 G
E||-----3---2-3-3-3--3-----3-||
B||-----3---3-1-3-3--3-----3-||
G||---------2-0------2-------||
D||-----2---0-2--------------||
A||-----2-----3-2-1--0-----2-||
E||-3-2-0------------------3-||
	

    G C Dsus4 Em A7 Am D7
E||-3-3---3----0--0--0--2-||
B||-3-1---3----0--2--1--1-||
G||-------2----0--0--2--2-||
D||---2---0----2--2--2--0-||
A||-2-3---x----2--0--0--x-||
E||-3-----x----0--x--x--x-||
		


Am stat o clipă-n loc s-ascult
                   
Ce freamăt lung se-aude

Doar vântul apa scutura
        
Din ramurile ude
        
Din ramurile ude

şi paşii mei foşneau uşor
Pe frunzele cărării
Mergeam în noapte tremurând 
De chinul aşteptării (bis)

La stânga codru-ntunecat
Grădina-n mâna dreaptă
şi-n fund o casă printre plopi
Iubita-n prag m-aşteaptă (bis)

Aşa ţin minte ca acum
Când ne chemam prin şoapte
Prelung departe a ţipat
O pasăre de noapte (bis)


	Refren:

	              
	Mi se părea când ascultam 
        
	Copacii mari din faţă
	
	Că duşmani răi şi nevăzuţi
        
	Vor să mi-o ia din braţe
                          
	şi-atunci bolnav o sărutam 
                         
	Pe ochii mari, pe tâmple
                        
	şi-n taină parcă aşteptam 
                         
	Un rău să mi se-ntâmple

În zori de zi ne-am despărţit
Cântau în sat cocoşii
Iar norii de la răsărit
Pluteau în flăcări roşii (bis)

Acum sunt singur şi-i târziu
Iubita mi-e departe
Mă arde-n suflet dorul viu
şi zilele-mi sunt moarte (bis)

	Refren.

Am stat o clipă-n loc s-ascult
Ce freamăt lung se-aude
Doar vântul apa scutura
Din ramurile ude (bis)

Folk  

Ultima actualizare:  16.07.2009

Comentarii

Pentru a putea vota sau adăuda comentarii, e nevoie să te autentifici sau înregistrezi .

Acorduri