Nicu Alifantis – Aproape liniste

(2 voturi)

Contribuție:  vasib


Intro:

Versuri:

                    
e|-2/3-------3-----|-2--------2------|
B|-----0-------0---|---0--------0----|
G|-------0-------0-|-----0--------0--|
D|-1/2-----2-------|-1-----1---------|
A|-----------------|-----------------|
E|-----------------|-----------------|

                  
e|-0---------0-----|-0------0--------|
B|---0---------0---|---0------0------|
G|-----0---------0-|-----0------0----|
D|-2-----2/4-------|-2-----2---------|
A|-----------------|-----------------|
E|-----------------|-----------------|

(2x2)

                
e|-5-------5-------|---------8-------|
B|---4-------4-----|-----7-------7---|
G|-----5-------5---|---8---8---8---8-|
D|-4-----4---------|-7---------------|
A|-----------------|-----------------|
E|-----------------|-----------------|

    
e|-3--------2------0--------0--------|
B|---0--------0------0--------0------|
G|-----0--------0------0--------0----|
D|-2------2--------2------2----------|
A|-----------------------------------|
E|-----------------------------------|

Refren:

                 
e|-0-------0--------------2----------|
B|---1-------1--------3-------3------|
G|-----0-------0----3---3---3---3----|
D|-------2--------3------------------|
A|-3---------------------------------|
E|-----------------------------------|

                       
e|-0----------0------0---------------|
B|---0----------0--------------------|
G|-----0----------0------------------|
D|-2------2/4--------2---------------|
A|-----------------------------------|
E|-----------------------------------|


Norii-s de argint si zboara departe
Cerul e-nalt, taiat in clestar
Noaptea-i o perdea si-n fereastra mea
Doar umbre care-ncet dispar
Cand nu esti aici e camera goala
E timpul lenes, mult prea lung
Deloc nu mi-e somn si-n loc sa adorm
Incerc cu gandul sa te-ajung

Refren:
Se insenineaza cerul departe
Ceata dispare rupta in fasii
Strazile-s pustii, daca tu, tu nu vii
Degeaba-ncepe, incepe o noua zi


	
Am	    Dbdim	    Ebdim	 
Nu te-ndeparta, nu ma mai lasa 
              Em	
Singur sa te-astept 
Nu te razgandi, nu ma ocoli
Nu mai fugi

Si-i liniste iar aproape de mine
Prea triste visele imi sunt
De ce nu esti aici sa-mi poti vorbi, sa-ti pot vorbi
S-apropii cerul de pamant
Si-i liniste iar aproape de mine
De ce n-auzi chemarea mea
Te strig mereu, te strig in gand
E inima mea ca un ceas batand

(Refren)

-------------------------------
	
Dbdim	xx2323 
Ebdim	xx1212

Folk  

Ultima actualizare:  08.07.2014

Pentru a putea vota sau adăuda comentarii, e nevoie să te autentifici sau înregistrezi .

Acorduri