Steaua – Cantec pentru Tine (Pion si Regina)

Contribuție:  vasib


Intro:

           G     A7          F#m   Bm
e|-------|---3-x-----0-x-0--|--2-x-----2-x-2-|
B|-------|---0-x-----2-x-2--|--2-x-----3-x-3-|
G|-------|---0-x-----0-x-0--|--2-x-----4-x-4-|
D|-------|-----x-2-----x----|----x-------x---|
A|-------|------------------|-4----2---------|
E|-0-2-3-|-3----------------|----------------|

   G     A7         Dmaj7       Gm
e|---3-x-----0-x-0--|--2-3---2--3--2-|
B|---0-x-----2-x-2--|--2-3---2--3--2-|
G|---0-x-----0-x-0--|--2-3---2--3--2-|
D|-----x-2-----x----|----------------|
A|------------------|----------------|
E|-3----------------|---final_a------|

se repeta de la inceput cu final_b:

   Dmaj7         Gm          Dmaj7  
e|-2---2--2-2-2--3---3--5-3--2--------|
B|-2---2--2-2-2--3---3--5-3--2--------|
G|-2---2--2-2-2--3---3--3-3--2--------|
D|----------------------------------0-|
A|------------------------------0h2---|
E|------------------------------------|


                             
Se-ntuneca cerul si norii sunt grei 
                          
In lacrima ploii revad ochii tai 
                                 
Faptura-ti intreaga s-o sarut indraznesc 
                             
Afara-i furtuna dar tot te iubesc           

Sabii de foc spre noi au pornit
Sa ne desparta si-ar fi dorit
Dar iata c-apare si-un bland curcubeu
                        
Iubirea invinge mereu             


Refren:

D|-0-2-4-|
                      
Dar totul, totul se pare 
              
Nu-i decat un joc 
                     
Un joc cu iubiri de noroc         

D|-0-2-4-|
                     
Eu sunt pion tu regina  
                 
Pe-acelas camp minat 
                      
Nimic nu mai pare schimbat         
(x2)


(Intro)


Acest intuneric ne-ameninta fals
Iubirea ne poarta spre dulcele-i vals
Oriunde privesc eu vad ochii tai
Lumina lor varsa spre mine vapai

Trecut-au decenii dar azi esti a mea
Si nici o putere nu mi te va lua
Zadarnic voi demoni luptati pentru rau
Iubirea invinge acum si mereu
Iubirea sunt eu.


(Refren)


--------------------
A7     Dmaj7  
002020 xx0222
 
Gm     Em     
xx0333 022003 

A7sus4 
x02030

Folk  

Ultima actualizare:  08.07.2014

Pentru a putea vota sau adăuda comentarii, e nevoie să te autentifici sau înregistrezi .

Acorduri