Vama Veche – Cu tine

(11 voturi)

Contribuție:  rasgeado


Nota: Pentru orga se potriveste ritmul 6/8 blues, cu tempo de 40

Intro:

pian
                          
E||--------------------|-----------------|--------------------|
B||--------------------|-----------------|--------------------|
G||--------------------|-----------------|--------------------|
D||-----------------0--|--4--------------|-----------------0--|
A||-----------0--2-----|-----------------|-----------0--2-----|
E||--------------------|-----------------|--------------------|

 
                                    
-----------------|------------------|---------------|-----------------|
-----------------|------------------|---------------|------------2h-3-|
-----------------|---------------4--|--2------------|------2--4-------|
--5--------------|------------------|---------------|-----------------|
-----------------|---------0--2-----|---------------|-----------------|
-----------------|------------------|---------------|-----------------|


                                         
-----------------|----------------------|-----------------|
-----------------|-----------------2h-3-|-----------------|
--0--------------|-----------2--4-------|-----------------|
-----------------|----------------------|--4--------------|
-----------------|----------------------|-----------------|
-----------------|----------------------|-----------------|

                                                               
------------------|-------------|-------------|------------------||
------------------|--5----------|-------------|-----3------------||
-------------2h-4-|-------------|----------2--|--4---------------||
-------4--5-------|--2----------|-------------|------------------||
------------------|-------------|-------------|------------------||
------------------|-------------|-------------|------------------||

chitara

E||----|-----------2--------|-----------2--------|-----------3--------|
B||----|--------3-----3-----|--------3-----3-----|--------0-----0-----|
G||----|-----2-----------2--|-----2-----------2--|-----0-----------0--|
D||----|--0-----------------|--0-----------------|--------------------|
A||----|--------------------|--------------------|--------------------|
E||----|--------------------|--------------------|--3-----------------|


-----------3--------|-----------2--------|-----------2--------|
--------0-----0-----|--------3-----3-----|--------3-----3-----|
-----0-----------0--|-----2-----------2--|-----2-----------2--|
--------------------|--0-----------------|--0-----------------|
--------------------|--------------------|--------------------|
--3-----------------|--------------------|--------------------|


-----------3--------|-----------3--------|-----------2--------|
--------0-----0-----|--------0-----0-----|--------3-----3-----|
-----0-----------0--|-----0-----------0--|-----2-----------2--|
--------------------|--------------------|--0-----------------|
--------------------|--------------------|--------------------|
--3-----------------|--3-----------------|--------------------|


-----------2--------|-----------0--------|-----------0--------|
--------3-----3-----|--------2-----2-----|--------2-----2-----|
-----2-----------2--|-----2-----------2--|-----2-----------2--|
--0-----------------|--------------------|--------------------|
--------------------|--0-----------------|--0-----------------|
--------------------|--------------------|--------------------|


-----------2--------||
--------3-----3-----||
-----2-----------2--||
--0-----------------||
--------------------||
--------------------||



Noapte albă, ajung târziu acasă

Mi-ai lăsat mâncarea în cuptor

Jumătate dezvelită ai adormit
              
Mă înfior... mă înfior

riff A:

                     
E||--------------------|-----------0--------||
B||--------0--------0--|--------0-----0-----||
G||-----0--------0-----|-----0-----------0--||
D||--------------------|--------------------||
A||--------------------|--------------------||
E||--3--------2--------|--0-----------------||


Mă întind în pat lângă tine
Îmi îngrop ziua în părul tău
Respirăm amândoi împreună
Ne amestecăm, ne amestecăm

	Refren: 

		
	Ne amestecăm
 	             
	Trupurile-n noapte
	       
	Ne amestecăm
	        
	Pân-ajungem şoapte
	                                
	Pe limba ta o şoaptă vreau să ajung 
	         
	Să mă topeesc
	                             
	În tine vreau să pot să mă ascund
                      
	şi să lumine-e-ez

Râsul tău duminică dimineata
Mă stropeşti cu roşu, eu visez
În ochii tăi văd restul vieţii mele
Ne amestecăm, ne amestecăm

	Ne amestecăm
	Trupurile-n noapte
	Ne amestecăm pân-ajungem şoapte
	De-acum încolo îţi dau viaţa mea 
	Te rog să o primeşti
	Un satelit de dor în jurum tău voi fi
	Ai să străluceşti

                           
Cu tine vreau s-alerg, cu tine vreau să râd
                           
Cu tine vreau să tac, cu tine vreau să plâng
                                              
Cu tine vreau să sper, cu tine vreau să iert, cu tine vreau...

cu tine vreau să râd
Cu tine vreau să tac,
Cu tine vreau să plâng
Cu tine vreau să sper

Cu tine vreau să iert
Cu tine vreau să pierd 
Cu tine vreau să mor
Cu tine vreau tot

Em/G: 322000 sau 022003
G/F#: 220003

Pop-Rock  

Comentarii

Pentru a putea vota sau adăuda comentarii, e nevoie să te autentifici sau înregistrezi .

Acorduri