Florin Chilian – Zece - intro chitara

(4 voturi)

Contribuție:  mirceas


Cam asta e ceea ce canta Florin Chilian la chitara in concerte 
(cel putin cam asa imi suna mie). 
In randul 3 a doua "masura" o canta asa la inceputul si la finalul piesei, 
la celelalte doua repetari ale intro-ului e un pic altfel, o sa le pun si 
pe alea dupa ce le descifrez.
S-ar putea sa mai fie ceva note care mi-au scapat, in special pe ultimele 
trei corzi, dar cam atat poate urechea mea bleaga, asa ca daca mai 
descoperiti ceva astept sugestii.
Sper ca nu am gresit cu p-urile si h-urile, oricum daca ascultati piesa le 
gasiti voi.
Nu e chiar asa de greu de cantat daca incercati sa prindeti acorduri, nu 
fiecare nota individual.
Nu dati cu parul.

|---3--1--0-----0--1--0|-----------------------------------------------0---|
|------------3---------|----------1--p1--0--h1--0--h1--p1-----0--1--3-----1|
|0---------------------|-------2---------------------------2---------------|
|----------------------|----2----------------------------------------------|
|------3---------------|-0-------------------------------------------------|
|----------------------|---------------------------------------------------|

|-------------------|----------------------------|-------------------------|
|------3--h1-----1--|-------1--------1-----0-----|-------3--h1-----1-------|
|-------------0-----|----0--------0--------------|--------------0--------0-|
|---2---------------|-3--------2--------0--------|----2--------------------|
|3------------------|----------------------------|-3-----------------------|
|-------------------|-------------------------0--|--------------------0----|

|-0--3--/5--/3--0--3--|-3--1--0--3--1--0-----0--1--0--3--1--0--|
|----0----------0--0--|-------------------3--------------------|
|---------------------|----------------------------------------|
|---------------------|----------------------------------------|
|------------------0--|-0--------0--------------------0--------|
|---------------------|----------------------------------------|


|------------------------0----|--------------------|
|----0--h1-----0--h1--3-----1-|-------3--h1-----1--|
|-----------2-----------------|--------------0-----|
|-----------------------------|----2---------------|
|-0---------------------------|-3------------------|
|-----------------------------|--------------------|

                                                          ^
|----------------------------|--------------------|-------1--1--0----|
|-------1--------1-----0-----|-------3--h1-----1--|-------0--------1-|
|----0--------0--------------|--------------0-----|----0--0--------2-|
|-3--------2--------0--------|----2---------------|-2--------------2-|
|----------------------------|-3------------------|------------------|
|-------------------------0--|--------------------|------------------|

Folk  

Ultima actualizare:  10.12.2009

Comentarii

Pentru a putea vota sau adăuda comentarii, e nevoie să te autentifici sau înregistrezi .