Fără Zahăr – Lasă-mă papa-n italea

(4 voturi)

Contribuție:  Volkane


Pe tot parcursul melodiei:

e|----------------------------------|
B|-----1-0-----3-1------1-0-----3-1-|
G|-2-------1--------2-------1-------|
D|---2-------2--------2-------2-----|
A|-0-------2--------0-------2-------|
E|----------------------------------|

e|--------------------------0-1-3-5-|
B|-----1-0-----3-1------1-3---------|
G|-2-------1--------2---------------|
D|---2-------2--------2-------------|
A|-0-------2--------0---------------|
E|----------------------------------|

Solistica intro/post-refren:

         .--^--.       .--^--.                           .--^--.

e|-0-5-8-7-7-7-7-5-8-5-7-7-7-7-5-s3-1-s3-0---1-0-----------------|
B|-----------------------------------------3-----3---1-----------|
G|-------------------------------------------------2---2-2-2-2-2-|
D|---------------------------------------------------------------|
A|---------------------------------------------------------------|
E|---------------------------------------------------------------|


       .--^--.         .--^--. .--^--. .--^--. .--^--.

e|-----4-4-4-4-8-7-7-8-5-5-5-5-5-5-5-5-5-5-5-5-5-5-5-5-|
B|-----------------------------------------------------|
G|-2s4-------------------------------------------------|
D|-----------------------------------------------------|
A|-----------------------------------------------------|
E|-----------------------------------------------------|


.------------------^--------------------.
Ascultaţi melodia şi vă prindeţi ce-s cu
notele de sub acolade, eu am simplificat
pentru o mai uşoară înţelegere.

Succes!

Intro: solo

Mi-ai zis o data cand eram mai mic ca daca beau laptic
O sa cresc mare si voinic, ca Picasso, nu-ti cer nimic
Decat sa recunosti acuma cand is mare
Ca m-ai batut regulat cu nuiaua pe spinare.

Da’-am crescut baiat finut, smenarel si pus pe fapte
C-am muscat din tata mamei si-am supt sangele cu lapte
Wai, tata, Wai, iti scriu 'Adio!' din Milano,
Pa si pusy, Romania, sono un italiano.

Mi-aduc aminte cand ma-nvatai sa tin in mana un topor,
Erai bat si-acum mai am un singur deget la chicior,
Sau de Craciun te-mbatai si ne furai din casa bradu’
Il vindeai si eu cantam 'impodobeste, mama gardul!'.

Doar eu stiu ce greu mi-o fost pan’ ti-am vandut caciula
Sa fac rost de bani, pana-n Croatia, orasul… (uhaaa)
Am trecut marea inot si am intrat in Guiness Book,
Da’ o aflat ca sunt roman, m-o scos si m-o bagat la zdup.

Acuma sparg un telefon, sa fac rost de fise,
Sa-mi scot gagica in oras (Bona sera, pissy).
Taticu’! Din cizma-ti trimit o flegma sa-ti lipeasca freza,
Ca Ronaldo, cu efect, fix in paharu’-n care-ti tii proteza!

(mai rar cantata, echivaleaza cu o strofa intreaga)
Vino-acasa, mai baiete, nu mai pot de dor,
Mi s-o rastit un perete drept peste chicior.

Post refren: solo

Sunt in Italia, viata-i scumpa, jumate de chenzina
O trebuit sa-i dau lu’ unu’ pe-o manuta de faina,
S-apoi era stricata, ca m-o pus s-o trag pe nas,
M-o cuprins euforia si am ras juma’ de ceas.

Mie-mi place sa muncesc, da’ sa zvarl apoi cu bani’
Seara ma destrabalez, cumpar suc, mananc bomboane,
Da' un lucru nu-nteleg si-asta zau ca ma intriga,
Da’ de ce-n Italia-n pizza nu se pune mamaliga?

Eu numar euroi si-mi indes cu ei chilotii,
Ca ma tem sa-i port in haina - daca ma fura mafiotii?
M-o prins o data unu’, o cunostea pe mama
Ca mi-o zis cu pusca-n mana ca sunt 'filio de putana'.

I-am trimis lu’ mama-o geanta de parfumuri, d-acele
Ca miroase-asa de tare, ca nu tre’ sa se mai spele,
Tu tai geanta cu lama si-am aflat de la un vecin
Ca din ce-i trimit lu’ mama ti-ai deschis un magazin.

Te prind eu, mascaltzone, acusi imi fac valiza
Si mai rapad o fuga-n tara, ca-mi expira viza,
De la mine nu furi nica’, ca la tine nu ma-ntorc,
Marg mai ghini la bunica, fiindca tu esti porc, mei!


Vin’ la mine, mai baiete, tat-tu’-i lat in hol,
I s-o rastit un perete drept peste chicior.

Post refren = Outro: solo

Ultima actualizare:  10.09.2015

Comentarii

Pentru a putea vota sau adăuda comentarii, e nevoie să te autentifici sau înregistrezi .