Ștefan Hrușcă – Zoriori de ziua

Contribuție:  lupseionut


INTRO : G G G G - cu ciupit (vezi mai jos) -  

Strofa I
                                          
       Sculaaaati,       sculaaaati,        boieeeeri
E||-------3----------|-------2----------|-------3----------| 
B||-----3---3--------|-----3---3--------|-----3---3--------|
G||---0-------0---0--|---2-------2---2--|---0-------0---0--|
D||------------------|-0-----------0----|------------------|
A||------------------|------------------|------------------|
E||-3-----------3----|------------------|-3-----------3----|
                                          
        maaaari          Zoriiii            ori-deeee          
E||-------0----------|-------3----------|-------2----------|
B||-----1---1--------|-----3---3--------|-----3---3--------|
G||---0-------0---0--|--0--------0---0--|---2-------2---2--|
D||------------------|------------------|-0-----------0----|
A||-3-----------3----|------------------|------------------|
E||------------------|-3-----------3----|------------------|
                                          
         ziuaaaa         Sculaaaati         voi-roooo------   
E||-------3----------|-------3----------|-------0----------| 
B||-----3---3--------|-----3---3--------|-----1---1--------|
G||---0-------0---0--|---0-------0---0--|---0-------0---0--|
D||------------------|------------------|------------------|
A||------------------|------------------|-3-----------3----|
E||-3-----------3----|-3-----------3----|------------------|
                           
--------mani-pluuuu         gaaaari
E||-------3----------|-------0----------| 
B||-----3---3--------|-----1---1--------|
G||---0-------0---0--|---0-------0---0--|
D||------------------|------------------|
A||------------------|-3-----------3----|
E||-3-----------3----|------------------|
                                           
       Zoriiii            ori-deee           ziuaaaaa
E||-------3----------|-------2----------|-------3----------| 
B||-----3---3--------|-----3---3--------|-----3---3--------|
G||---0-------0---0--|---2-------2---2--|---0-------0---0--|
D||------------------|-0-----------0----|------------------|
A||------------------|------------------|------------------|
E||-3-----------3----|------------------|-3-----------3----|


- acordurile primei strofe sunt valabile si celor ce o succed -

II
Ca va vin colindatori
Zoriori de ziua
Noaptea pe la cantatori
Zoriori de ziua

III
Si v-aduc pe Dumnezau
Zoriori de ziua
Sa va mantuia' de rau
Zoriori de ziua

IV
Dumnezau adevarat
Zoriori de ziua
Soare, Raza, Luminat,
Zoriori de ziua

V
Si va spun sa ne traiti
Zoriori de ziua
Intru multi ani fericiti
Zoriori de ziua 

NOTA : - am redescoperit aceasta minunata colinda in cantul cald si duios
      al lui Stefan Hrusca, am intuit acordurile si am asezat-o pe
     ,,hartie". Sper sa va bucurati de ea asa cum am facut-o la randu-mi -

Colinde  

Pentru a putea vota sau adăuda comentarii, e nevoie să te autentifici sau înregistrezi .

Acorduri