Claudia Pavel – Don't miss missing you

Contribuție:  e4lex


Am facut un tab de powerchords pentr cei care se joca cu distort. 
                                           Bafta, Alex


Vers:


Sometimes i hide with your picture  which i now i should've thrown away
e:--x------------------x------------------x----------------11--|-
b:--8------------------11-----------------11---------------10--|-
g:--10-----------------11-----------------10---------------x---|-
D:--x------------------x------------------x----------------x---|-
A:--x------------------x------------------x----------------x---|-
E:--x------------------x------------------x----------------x---|-


but still i try to deny  that i feel nothing when i see your face
e:--x------------------x------------------x----------------11--|-
b:--8------------------11-----------------11---------------10--|-
g:--10-----------------11-----------------10---------------x---|-
D:--x------------------x------------------x----------------x---|-
A:--x------------------x------------------x----------------x---|-
E:--x------------------x------------------x----------------x---|-


Bridge:


tears and months and years of calling most of time and i stay strong
e:--x------------------x------------------x----------------11--|-
b:--8------------------11-----------------11---------------10--|-
g:--10-----------------11-----------------10---------------x---|-
D:--x------------------x------------------x----------------x---|-
A:--x------------------x------------------x----------------x---|-
E:--x------------------x------------------x----------------x---|-

i'm ok i'm ok and i know that it isn't right but sometimes is so hard to fight do
nothing every day and   night
e:--x------------------x------------------x----------------x---|-
b:--8------------------11-----------------11---------------13--|-
g:--10-----------------11-----------------10---------------13--|-
D:--x------------------x------------------x----------------x---|-
A:--x------------------x------------------x----------------x---|-
E:--x------------------x------------------x----------------x---|-




Refren: 



I miss what could could have been late nights that never end.. i'm ok i'm ok 
e:--x------------------x------------------x----------------11--|-
b:--11-----------------x------------------11---------------10--|-
g:--10-----------------11-----------------10---------------x---|-
D:--x------------------10-----------------x----------------x---|-
A:--x------------------x------------------x----------------x---|-
E:--x------------------x------------------x----------------x---|-

I miss how you'd hold me close like you'd never let me go.. i'm ok i'm ok
e:--x------------------x------------------x----------------11--|-
b:--11-----------------x------------------11---------------10--|-
g:--10-----------------11-----------------10---------------x---|-
D:--x------------------10-----------------x----------------x---|-
A:--x------------------x------------------x----------------x---|-
E:--x------------------x------------------x----------------x---|-


Your smile,your touch is in the past Accept the facts you're never coming back oh no
e:--x------------------x------------------x----------------11--|-
b:--11-----------------x------------------11---------------10--|-
g:--10-----------------11-----------------10---------------x---|-
D:--x------------------10-----------------x----------------x---|-
A:--x------------------x------------------x----------------x---|-
E:--x------------------x------------------x----------------x---|-
 

I miss the love loving you, miss everything but is the  truth... I don't  miss missing you...
e:--x------------------x------------------x----------------11--|-
b:--11-----------------x------------------11---------------10--|-
g:--10-----------------11-----------------10---------------x---|-
D:--x------------------10-----------------x----------------x---|-
A:--x------------------x------------------x----------------x---|-
E:--x------------------x------------------x----------------x---|-


it's ok ok



Vers:




I can't forget the day you left wish this pain would just make believe
e:--x------------------x------------------x----------------11--|-
b:--8------------------11-----------------11---------------10--|-
g:--10-----------------11-----------------10---------------x---|-
D:--x------------------x------------------x----------------x---|-
A:--x------------------x------------------x----------------x---|-
E:--x------------------x------------------x----------------x---|-

oh my heart breaks not a missed day why can't we rewrite our history
e:--x------------------x------------------x----------------11--|-
b:--8------------------11-----------------11---------------10--|-
g:--10-----------------11-----------------10---------------x---|-
D:--x------------------x------------------x----------------x---|-
A:--x------------------x------------------x----------------x---|-
E:--x------------------x------------------x----------------x---|-



Bridge: 



didn't know how i would feel i thought that i would never heal  i'm ok, i'm ok
e:--x------------------x------------------x----------------11--|-
b:--8------------------11-----------------11---------------10--|-
g:--10-----------------11-----------------10---------------x---|-
D:--x------------------x------------------x----------------x---|-
A:--x------------------x------------------x----------------x---|-
E:--x------------------x------------------x----------------x---|-

Yes I moved on with my life but sometimes is so hard to fight Do nothing every day and night
e:--x------------------x------------------x----------------x---|-
b:--8------------------11-----------------11---------------13--|-
g:--10-----------------11-----------------10---------------13--|-
D:--x------------------x------------------x----------------x---|-
A:--x------------------x------------------x----------------x---|-
E:--x------------------x------------------x----------------x---|-



Refren: 



I miss what could could have been late nights that never end.. i'm ok i'm ok 
e:--x------------------x------------------x----------------11--|-
b:--11-----------------x------------------11---------------10--|-
g:--10-----------------11-----------------10---------------x---|-
D:--x------------------10-----------------x----------------x---|-
A:--x------------------x------------------x----------------x---|-
E:--x------------------x------------------x----------------x---|-

I miss how you'd hold me close like you'd never let me go.. i'm ok i'm ok
e:--x------------------x------------------x----------------11--|-
b:--11-----------------x------------------11---------------10--|-
g:--10-----------------11-----------------10---------------x---|-
D:--x------------------10-----------------x----------------x---|-
A:--x------------------x------------------x----------------x---|-
E:--x------------------x------------------x----------------x---|-


Your smile,your touch is in the past Accept the facts you're never coming back oh no
e:--x------------------x------------------x----------------11--|-
b:--11-----------------x------------------11---------------10--|-
g:--10-----------------11-----------------10---------------x---|-
D:--x------------------10-----------------x----------------x---|-
A:--x------------------x------------------x----------------x---|-
E:--x------------------x------------------x----------------x---|-
 

I miss the love loving you, miss everything but is the  truth... I don't  miss missing you...
e:--x------------------x------------------x----------------11--|-
b:--11-----------------x------------------11---------------10--|-
g:--10-----------------11-----------------10---------------x---|-
D:--x------------------10-----------------x----------------x---|-
A:--x------------------x------------------x----------------x---|-
E:--x------------------x------------------x----------------x---|-


it's ok ok



Interludiu: 


Sometimes unspoken words mean so long it shouldn't hurt but it hurts 
e:--x------------------x------------------x----------------11--|-
b:--x------------------x------------------11---------------10--|-
g:--11-----------------x------------------10---------------x---|-
D:--10-----------------10-----------------x----------------x---|-
A:--x------------------9------------------x----------------x---|-
E:--x------------------x------------------x----------------x---|-

If you ever think of coming home stay away rather then being alone alone alone Cause baby 
e:--x------------------x------------------x----------------11------x-----|-
b:--x------------------x------------------11---------------10------8-----|-
g:--11-----------------11-----------------10---------------x-------10----|-
D:--10-----------------10-----------------x----------------x-------x-----|-
A:--x------------------x------------------x----------------x-------x-----|-
E:--x------------------x------------------x----------------x-------x-----|-


Refren: 



I miss what could could have been late nights that never end.. i'm ok i'm ok 
e:--x------------------x------------------x----------------11--|-
b:--11-----------------x------------------11---------------10--|-
g:--10-----------------11-----------------10---------------x---|-
D:--x------------------10-----------------x----------------x---|-
A:--x------------------x------------------x----------------x---|-
E:--x------------------x------------------x----------------x---|-

I miss how you'd hold me close like you'd never let me go.. i'm ok i'm ok
e:--x------------------x------------------x----------------11--|-
b:--11-----------------x------------------11---------------10--|-
g:--10-----------------11-----------------10---------------x---|-
D:--x------------------10-----------------x----------------x---|-
A:--x------------------x------------------x----------------x---|-
E:--x------------------x------------------x----------------x---|-


Your smile,your touch is in the past Accept the facts you're never coming back oh no
e:--x------------------x------------------x----------------11--|-
b:--11-----------------x------------------11---------------10--|-
g:--10-----------------11-----------------10---------------x---|-
D:--x------------------10-----------------x----------------x---|-
A:--x------------------x------------------x----------------x---|-
E:--x------------------x------------------x----------------x---|-
 

I miss the love loving you, miss everything but is the  truth... I don't  miss missing you...
e:--x------------------x------------------x----------------11--|-
b:--11-----------------x------------------11---------------10--|-
g:--10-----------------11-----------------10---------------x---|-
D:--x------------------10-----------------x----------------x---|-
A:--x------------------x------------------x----------------x---|-
E:--x------------------x------------------x----------------x---|-


it's ok ok

Pop  

Ultima actualizare:  06.01.2010

Pentru a putea vota sau adăuda comentarii, e nevoie să te autentifici sau înregistrezi .