Provincialii – Chitara (intro)

(2 voturi)

Contribuție:  iulianh


Intro: 
E------------------------------------------------------------------------------------
B--7-5---2-3-5-7-5-2---8-7---2-3-5-7-----7-5---2-3-5-7-5-2---8-7---2-3-5-7-----------
G------------------------------------------------------------------------------------
D------------------------------------------------------------------------------------
A------------------------------------------------------------------------------------
E------------------------------------------------------------------------------------

E--5---------------------------------------------------------------------------------
B----8----787875-----8-7--5-7-8-7--5-5-7-5-------------------------2-2-3-2-0-0---0---
G--------------------------------------------7-6---6-6-7-6-4-------------------3-----
D------------------------------------------------------------8-----------------------
A------------------------------------------------------------------------------------
E------------------------------------------------------------------------------------

Romanţe  

Ultima actualizare:  08.01.2010

Comentarii

Pentru a putea vota sau adăuda comentarii, e nevoie să te autentifici sau înregistrezi .