Trupa Zero – Sunny Days

(5 voturi)

Contribuție:  Bobu


Intro:

 E|-5-5--5-5--5-5--5-5--5-5--5-5--5-5--5-5-|
 B|-6-6--6-6--6-6--6-6--6-6--6-6--6-6--6-6-|
 G|----------------------------------------| 
 D|----------------------------------------|
 A|----------------------------------------|
 E|----------------------------------------|


   Strofa I:

   Pe strofa intai vine ceva de genu (fiecare parte vine facuta de 8 ori, ca si pe intro):



 E|-5-5--|-5-5-|-5-5-|-6-6-|
 B|-6-6--|-3-3-|-5-5-|-6-6-|
 G|------|-----|-----|-----|
 D|------|-----|-----|-----|  x2
 A|------|-----|-----|-----|
 E|------|-----|-----|-----|


    
     In a way, you can call me a fool,
     I was praying, to find love from you,
     In a way,
     Love is chasing me every day.

     From the day you left, I was lonely,
     It was all the same, different story,
     Why do you have to go,why my life is it so?
     It's so bad, I didn't know...


                                        
             Ref: Tell me where is the love, or I believe in a lie
                                       
                  Tell me what do you feel when you look in my eyes,
                                       
                  I sing the same sad song, that reminds me of you,
                                           
                  Oh, I would give you my love, if you'd ask me to.

                  They say that love is a drug, it can take you si high,
                  It can make you strong, but you've been living a lie
                  I gues I might be hurt...
                  I gues I might be hurt, don't worry I'll be OK...
   

      Instrumental:  F  Dm  Am  Bb




    Strofa II:

  
        Pe strofa a II-a, in loc sa fie lovite primele 2 corzi deodata, vine ciupita 
        coarda a 2-a (B)  si apoi coarda 1 (E)



 E|--5--5--5--5--5--5--5--5----5--5--5--5--5--5--5--5----5--5--5--5--5--5--5--5--
 B|-6--6--6--6--6--6--6--6----3--3--3--3--3--3--3--3----5--5--5--5--5--5--5--5---
 G|------------------------------------------------------------------------------
 D|------------------------------------------------------------------------------
 A|------------------------------------------------------------------------------
 E|------------------------------------------------------------------------------



   ----6--6--6--6--6--6--8-6--6-|
   ---6--6--6--6--6--6-------6--|
   -----------------------------|
   -----------------------------|    x2
   -----------------------------|
   -----------------------------|


        Sunny days, look around you now
        Find a place, where you can't be found,
        Don't be scared,
        Dreams would take you so far away.

        I'm the man who can't be around you,
        I'm the man who stays just behind you,
        Why so you have to go, why my life is it so,
        It's so bad, I didn't know...


 

       Ref....

Pop-Rock  

Ultima actualizare:  20.07.2011

Comentarii

Pentru a putea vota sau adăuda comentarii, e nevoie să te autentifici sau înregistrezi .

Acorduri