Alexandru Andrieș – Ochi de ciocolata

Contribuție:  cata_cata


Nu stiu cum e originalul, dar cel mai simplu de cantat e din G (suna bine 
si artificiile). E o piesa foarte tare pentru amatorii de blues si nu 
numai. Succes!

                                        RIFF             
Are ochi de ciocolata si priveste uite-asa... 
                                              
Are ochi de ciocolata si priveste uite-asa...
                                       RIFF    
Cand iese ea pe strada, toti se uita dupa ea.

Are par lung si moale, roscat-auriu
Are par lung si moale, roscat-auriu
Si poarta la gat un fular visiniu.

Dac-o vezi, da-mi de stire si-alerg cat de iute pot...
Dac-o vezi, da-mi de stire si-alerg cat de iute pot...
A plecat ieri de la mine cu inima mea cu tot !

Riff:
e|--------------------
B|--------------------
G|-----0-3b1/2p0----0-
D|--0h2----------0h2--
A|-------------------
E|-------------------

   G  C7 A9- D   Em
e|-3--0--3---2---0--
B|-3--1--2---3---0--
G|-0--3--3---2---0--
D|-0--2--2---0---2--
A|-2--3--0---X---2--
E|-3--X--X---X---0—


Intro e cam asa (tre’ sa ascultati ca se ciupesc mai multe deodata, de sus
in joss au invers, dar asta e idea; ciupitura e aprox la fel si la versuri):

e|-3-------------------------3--------------------------------3------
B|-3--------------------------3------1-------1---1-------1----3-------
G|-0------0h3b1/2p0----0----0--0------0-3b1/2-0---0-3b1/2-3r0-0------
D|-0---0h2----------0h2-----0---0-----------------------------0----
A|-2-----------------------2------2-3-----------3-------------2-----
E|-3----------------------3-----------------------------------3-----
                         [ 2x    ]

e|----------------------3---------------0-------3---2--3------
B|----------------------3--------------0-0-----2-2--3--3-----------
G|------0h3b1/2p0----0--0-------------0---0---3-----2--0-------
D|---0h2----------0h2---0------------2-----2-2------0--0------
A|----------------------2-----------2-------0----------2--------
E|----------------------3---3-2-1-0--------------------3------

In loc de 0h3b1/2p0 se poate folosi 0h3/4p0, dar suna mai blues intinsul 
corzii. (r=release bend)

Blues  

Pentru a putea vota sau adăuda comentarii, e nevoie să te autentifici sau înregistrezi .

Acorduri