Chester – Eleven (of fist and bone)

(1 voturi)

Contribuție:  Gaina


INTRO:

e|---------------------------------------|
B|-----------------------0---------------|
G|------------6---6---6---6--------------|
D|----------7---7---7--------------------|
A|---------------------------------------|
E|---------------------------------------|


INTRO 2STROFE:


chitara 1
    A5*12  B5*4   F#5*12   E(sau E5)*4
e|---------------------------------------|
B|---------------------------------------|
G|----------4----------------------------|
D|--7-------4--------4----------2--------|
A|--7-------2--------4----------2--------|
E|--5----------------2----------0--------|


  chitara 2

e|---------------------------------------|
B|-----------------------0---------------|
G|------------6---6---6---6--------------|
D|----------7---7---7--------------------|
A|---------------------------------------|
E|---------------------------------------|


REFREN(cred):
  chitara 1
    D5      E5       A5        F#5
e|---------------------------------------|
B|---------------------------------------|
G|--7--------9---------------------------|
D|--7--------9--------7---------4--------|
A|--5--------7--------7---------4--------|
E|-----------0--------5---------2--------|  


chitara 2

 |----------------------| 
 |    optional          |
e|----------------------|-----------------------------------|
B|----------------------|-----------------------------------|
G|---55--555---77--444--|---6---7--6---6----6---9-6---6-----|
D|----------------------|-7---7------7----7---7-----7-------|
A|----------------------|-----------------------------------|
E|----------------------|-----------------------------------|


BRIDGE:
      *12      *4       *12     *4
e|---------------------------------------|
B|---------------------------------------|
G|----9--------14-------9-------7--------|
D|----7--------12-------7-------7--------|*2
A|---------------------------------------|
E|---------------------------------------|



BRIDGE2:

e|---------------------------------------|
B|--------------10----------10-----9-----|
G|------9-------------9------------------|*2
D|---------------------------------------|
A|---------------------------------------|
E|---------------------------------------|




Ordinea o descoperiti singuri(cred)

Pentru a putea vota sau adăuda comentarii, e nevoie să te autentifici sau înregistrezi .