Travka – Intr-un fel

Contribuție:  micutzu


Pentru ritm si bataie ascultati melodia.
Intro       	                                   
    C
e---3-3-3-3-3
b---3-3-3-3-3
g---5-5-5-5-5
d---5-5-5-5-5
a---3-3-3-3-3
e--------------

Refren
      G           A    A#     F       D#
e---3-3-3-3-3-3---5-5-6-6-6---1-1-1---4-4-4-
b---3-3-3-3-3-3---5-5-6-6-6---1-1-1---4-4-4-
g---4-4-4-4-4-4---4-4-7-7-7---2-2-2---6-6-6-
d---5-5-5-5-5-5---7-7-8-8-8---3-3-3---6-6-6-
a---5-5-5-5-5-5---7-7-8-8-8---3-3-3---4-4-4-
e---3-3-3-3-3-3---5-5-6-6-6---1-1-1-----------

Strofa
    C    F      D#     G      F slide  D#
e---3----8------6------3------8----/---6
b---3----8------6------3------8----/---6
g---5----10-----8------4------10---/---8
d---5----10-----8------5------10---/---8
a---3----8------6------5------8----/---6
e----------------------3-----------------


Refren
Nu suntem decat doi albi pierduti intr-un loc, undeva
Pierduti intr-un loc undeva unde in nici un caz nu e Africa...

Pierduti intr-un loc undeva unde in nici un caz nu e Africa...

Dar intr-un fel ne intalnim dimineata in zona in care ceata ne descopera viata
Dar intr-un fel ne intalnim dimineata in zona in care...

Strofa
(x3):
Eu sunt caine
Tu hiena
Eu cal
Tu balena
Eu sarm
Tu deriva
Eu calm
Tu atat de activa

Refren
(x3):
Dar intr-un fel ne intalnim dimineata pe fond sentimental
Pe fond sentimental deprimat de atatea crime impreuna cu tine

(x2):
Dar intr-un fel ne intalnim dimineata in zona in care ceata Ne descopera viata,
Dar intr-un fel ne intalnim dimineata in zona in care

(x3):
Eu sunt caine
Tu hiena
Eu cal
Tu balena
Eu sarm
Tu deriva
Eu calm
Tu atat de activa

(x2):
Nu suntem decat doi albi pierduti intr-un loc, undeva
Pierduti intr-un loc undeva unde in nici un caz nu e Africa...

Pierduti intr-un loc undeva unde in nici un caz nu e Africa...

...la...
...la la la la la...
...la la la la la la la...

...la...
...lo lo lo lo lo...
...lo lo lo lo lo lo lo...

Rock  

Pentru a putea vota sau adăuda comentarii, e nevoie să te autentifici sau înregistrezi .