3rei Sud Est – Alaturi de ingeri (intro)

(47 voturi)

Contribuție:  anonim133


3 Sud Est - Alaturi de ingeri (intro)

E||--------------------3--|--------------------------|------------------0----|
B||------------1----------|--------------------------|----------0------------|
G||-------0---------0-----|--------0--2--0-----0-----|-----0---------0-------|
D||-----------------------|-----------------4-----2--|-----------------------|
A||--3--------------------|--------------------------|-----------------------|
E||-----------------------|--------------------------|-----------------------|


-------0-----------------||
----------0--------------||
-------------0-----------||
----------------0--------||
-------------------------||
-------------------------||

E||---------------0----3--|--------------------------|--------------0--------|
B||------------1----1-----|--------------------------|----------0------0-----|
G||-------0----------0----|--------0--2--0-----0-----|-----0--------------0--|
D||-----------------------|-----------------4-----2--|--2--------------------|
A||--3--------------------|--------------------------|-----------------------|
E||-----------------------|--------------------------|-----------------------|


----------0--------------||
--------0----------------||
------0------------------||
----2--------------------||
-------------------------||
-------------------------||

Dance  

Comentarii

Pentru a putea vota sau adăuda comentarii, e nevoie să te autentifici sau înregistrezi .