RoA (Romell Alaman) – Un lup

(3 voturi)

Contribuție:  catalins


Capo pe 3 !!!


O poveste cu un lup
     
Tare demult

A murit şi-apoi copil
       
S-a născut

Refren:
                    
Nu ştia de ce pădurea nume-i cântă
                       
Iară noaptea ca un vers alunecând
                  
Din pădure braţe ajung
                      
Din pădure cântece se-aud

Instrumental : Am Em / Am Em / D Em / D Em (linia melodica a refrenului)


Într-o vară tăcuta noapte
     
S-a răstit

Un copil c-un lup în urmă
     
Au fugit

Refren:……………….

Instrumental : ........

Vioara dintre strofa si refren (transpusa pe chitara):

Fara capodastru:

    D   C   D  Bb   D   C   D  Eb D   G  A  C  D  C  Bb D  C  Bb A  G 
e|----------------|-----------------|---------------------------------
B|--3---1---3-----|-3---1---3--4--3-|-------1--3--1-----3--1----------
G|-------------3--|-----------------|-0--2-----------3--------3--2--0-
D|----------------|-----------------|---------------------------------
A|----------------|-----------------|---------------------------------
E|----------------|-----------------|---------------------------------

Cu capodastru pe III:

    D   C   D  Bb   D   C   D  Eb D   G  A  C  D  C  Bb D  C  Bb A  G 
e|----------------|-----------------|---------------------------------
B|--0-------0-----|-0-------0--1--0-|----------0--------0-------------
G|------2-------0-|-----2-----------|-------2-----2--0-----2--0-------
D|----------------|-----------------|-2--4-----------------------4--2-
A|----------------|-----------------|---------------------------------
E|----------------|-----------------|---------------------------------

Folk  

Ultima actualizare:  16.05.2010

Comentarii

Pentru a putea vota sau adăuda comentarii, e nevoie să te autentifici sau înregistrezi .

Acorduri