Ștefan Hrușcă – Tu Ardeal (solo)

(1 voturi)

Contribuție:  xdatarazvi


Soloul De inceput



E||---3-2-0-----3-2-0-----3-3-5-3-5-7------------------------------|
B||----------3---------3-------------------------------------------|
G||----------------------------------------------------------------|
D||----------------------------------------------------------------|
A||----------------------------------------------------------------|
E||----------------------------------------------------------------|


E||---3-2-0-----3-2-0-----3-5-3-2-----0----------------------------|
B||----------3---------3-----------3-------------------------------|
G||----------------------------------------------------------------|
D||----------------------------------------------------------------|
A||----------------------------------------------------------------|
E||----------------------------------------------------------------|

Ultima actualizare:  16.05.2010

Comentarii

Pentru a putea vota sau adăuda comentarii, e nevoie să te autentifici sau înregistrezi .