Cântece creștine – Peste cuvinte

(2 voturi)

Contribuție:  joyo1993


Am doar trei luni de cand am pus mana pe o chitatra, asa ca va rog sa imi iertati
eventualele greseli.... Totul este dupa ureche, asa ca nu fiti prea exigenti;).


Acorduri: C,Am,Dm,G,F

INTRO:

  (C)             (Am)             (Dm)               
e|------0------0-|---------------|----0-1----0-0h1p0-|----0-1----0-1|
B|----3--3---3--3|----0-1----0-1-|---3-3-3--3-3------|---0-0-0--0-0-|
G|---0-0----0-0--|---2-2-2--2-2-2|--2------2---------|--0------0----|
D|--2------2-----|--2------2-----|-0------0----------|--------------|
A|-3------3------|-0------0------|-------------------|--------------|
E|---------------|---------------|-------------------|-3------3-----|

str1.

 (C)             (Am)             (Dm)            (G)   
e|------0------0-|---------------|----0-1----1--|----3-----3--|
B|----3--3---3--3|----0-1----0-1-|---3-3-3--3-3-|---0--0--0-0-|
G|---0-0----0-0--|---2-2-2--2-2-2|--2------2---2|--0--0-0----0|
D|--2------2-----|--2------2-----|-0------0-----|-------------|
A|-3------3------|-0------0------|--------------|-------------|
E|---------------|---------------|--------------|-3------3----|

                   
Peste cuvinte se-asterne tacerea,
                       
Se sting orice glasuri, s-a inserat.
                               
Ultima raza de soare e dincolo de orizont,
                        
Si am ramas doar cu Tine Doamne,
                         
Vreau sa vorbesc cu Tine Doamne
                         
Sunt mii de-ntrebari ce s-au adunat
                     
Si asteapta sa ti le pun.
          
Crede-ma Doamne,
                 
As astepta oricat raspunsul Tau
                  
Dar e prea mare dorinta sa aflu
                
De la mine ce astepti.

Spune-mi ce vrei ca sa fac eu cu viata
Pe care mi-ai dat-o ca pe un dar.
Spune-mi cum pot sa tin pacea in suflet
Nimic sa n-o tulbure, spune-mi mai spune-mi
De ce atata iubire,
De ce ne iubesti atata Doamne.
Din orice greseala si din orice vina
Tu ne ierti si ne scoti.
Cum sa fac sa merit Doamne,
Atata iubire si-ndurare?
Ma tot intreb, si nu inteleg
Dar in Tine Doamne cred


Enjoy!

Contact: swe2test_boy@yahoo.com

Creştine  

Ultima actualizare:  26.05.2010

Comentarii

Pentru a putea vota sau adăuda comentarii, e nevoie să te autentifici sau înregistrezi .

Acorduri