Paraziții – Arde

(6 voturi)

Contribuție:  stanFM


intro:
                                     
e -----------3--------------7-------------3---3---------------------7---10-------
B ---------3----------------7-------------3-----3-----------------7--------------
G --------------------------7-------------4-------4-------------7----------------
D ------5-------------------9-------------5---------5---------9------------------
A ----5---------------------9-------------5-----------------9--------------------
E --3---------------3-5-3---7---7-10-7----3---------------7----------------------



versuri si refren:

      G              Bm
e ----3--------------7-
B ----3--------------7-
G -4--4-----------7--7-
D -5--5-----------9--9-
A -5--------------9----
E -3--------------7----



Arde! Uite cum arde!


Dam semnale cu fum sa ne vezi de departe


Trag s-ajung unde tu n-ajungi,


Dati-mi bratari si imbracati-ma-n dungi


Arde!Uite cum arde!
Dam semnale cu fum sa ne vezi de departe


Trag s-ajung unde tu n-ajungi,
Dati-mi bratari si imbracati-ma-n dungiCheloo


Azi nu muncesc,nu injur printre dinti
Oo ard aiurea sau stau intins

etc...

Njoy /.
stanFM

Hip-hop  

Ultima actualizare:  11.08.2010

Comentarii

Pentru a putea vota sau adăuda comentarii, e nevoie să te autentifici sau înregistrezi .

Acorduri