Mircea Baniciu – Acum niste ani

(1 voturi)

Contribuție:  Petre A.


Intro: A B Bm Bm/A Bm/G# E D D/C# D/B D/A E A E A

                 
Acum niste ani,acum niste ani
 
Scartaind din pantofii de lac
            
Bunicul avea melon,papion,
                    
Cu mansete albe scrobite si ac
                              
Purta elegant manusi si baston.

                 
Acum niste ani un fost paradis
 
Bunica avea palarii din Paris
            
Rochii prelungi,carouri si dungi
                    
Gratiosi,frumosi si tineri erau
                            
Bunicii nostri acum niste ani.

R.F

Ieseau impreuna pe terasa cu luna

Mana-n mana,ochi in ochi vorbeau
                  
De timp,de masini,de cai si tramvai
                 
De moda-n locuri,calatorii,
                            
De lucruri mari,spectaculoase

Can-Can-uri,amoruri si bani
               
Si se iubeau,se-mbratisau
                              
Bunicii nostrii acum niste ani.

INTRO
                 
Acum incercam de la ei sa luam
 
Ceva din ce-a fost atunci
                   
Tango-ul si valsul,gestul si pasul
                    
Insa muzica nu mai e la fel
                         
Cum a fost acum niste ani

SOLO CHITARA:
   A                                      F#m                    
      |---3--|   |---3--|                                           
               
E||--12--10--9--12--10--9-----------------|--9----9----------------|
B||------------------------12---9-10---12-|------------12--10------|
G||---------------------------------------|------------------------|
D||---------------------------------------|------------------------|
A||---------------------------------------|------------------------|
E||---------------------------------------|------------------------|


   B                                                      
    
-------------9-----------------|-------------------------|
--12----12-----12--10----------|-------------------10----|
-----------------------11--11--|--11----9----11----------|
-------------------------------|-------------------------|
-------------------------------|-------------------------|
-------------------------------|-------------------------|


  Bm                                   
                             

--9--8----------------------------8-9-|
--------12--10------10------10-12-----|
----------------11------11------------|
--------------------------------------|
--------------------------------------|
--------------------------------------|


   D      D/C#       D/B       D/A               
  
--12--------------------------------------------|
------12-14---12----12--------------------------|
-----------------14-----14-11-14--11----11------|
-------------------------------------14-----14--|
------------------------------------------------|
------------------------------------------------|


  E                      A   E   A      
    
--------------------------------------||
---------10-------------10--12--10----||
--9----9----9-11-9----9---------------||
----11-------------11-----------------||
--------------------------------------||
--------------------------------------||


R.F

Ieseau impreuna pe terasa cu luna

Mana-n mana,ochi in ochi vorbeau
                  
De timp,de masini,de cai si tramvai
                 
De moda-n locuri,calatorii,
                            
De lucruri mari,spectaculoase

Can-Can-uri,amoruri si bani
               
Si se iubeau,se-mbratisau
                              
Bunicii nostrii acum niste ani.

INTRO

                 
Acum niste ani,acum niste ani
 
Scartaind din pantofii de lac
            
Bunicul avea melon,papion,
                    
Cu mansete albe scrobite si ac
                              
Purta elegant manusi si baston.

Folk  

Pentru a putea vota sau adăuda comentarii, e nevoie să te autentifici sau înregistrezi .

Acorduri