Narcisa Suciu – Campuri Aurii

(4 voturi)

Contribuție:  vasib


Intro: 

   Cadd9               G/B
e|--------3---------|--------3---------|
B|--------------3---|--------------3---|
G|-----0------0---0-|-----0------0---0-|
D|---2--------------|---0--------------|
A|-3----------------|-2----------------|
E|------------------|------------------|

   Am7                 Fadd9
e|--------3---------|--------3---------|
B|--------------1---|-----1--------1---|
G|-----0------0---0-|---2--------2---2-|
D|---2--------------|-3----------------|
A|-0----------------|------------------|
E|------------------|------------------|

(x2)


                         
Anunturi bizare si masini urland 
                    
Pavaje si stalpi de beton   
Femei usoare, aerul vibrand
Reclame in lumini de neon.

Ziarul de seara si caldul perfid
Cersetorii lipsiti de noroc
Preturi ce zboara, un carnet de partid
Cantareti din loc in loc.


(Intro)


Excursii in Rai, dolarul in flux
Electrice soapte de amor
Un concert de nai, limuzine de lux
Urmariri si institutia lor.

Inserare in gri c-un poet conformist
Ce-si pierde cumpatul sau
Cadenta khaki, cetatean optimist
Si nevoia mea de zambetul tau.


Refren:

                            
Si daca-n toate astea nu m-oi regasi   
                            
Si daca nu e asta drumul meu de-a fi   
                              
La voi ma voi intoarce sigur intr-o zi   
             
O,     voi, campuri aurii,     
             
O,     voi, campuri aurii.     

Furnicar meschin, copii rataciti
Statuile ca un desheu
Oras, mare chin cu pasii grabiti
Si lacrimi pe zambetul meu.

Baletul mecanic si-un pictor nebun
Biserici ce-asteapta caitzi
Rasul organic, un balon de sapun
Si-o voce soptind 'Fiti cuminti!'.


(Refren)


----------------
Cadd9    G/B    
x32033   x20033 

Am7      Fadd9  
x02013   xx3213 

G      
320033

Folk  

Ultima actualizare:  08.07.2014

Comentarii

Pentru a putea vota sau adăuda comentarii, e nevoie să te autentifici sau înregistrezi .

Acorduri