Anonim – Dansul pinguinului

(2 voturi)

Contribuție:  blugirupti


Artist  :Anonim
Titlu   :Dansul pinguinului 
Autor   :Alecs

e|-------------------------------------------------|
B|---------1------1-1---1--------------------------|
G|-------2------2-----2---2--0--------0------------|
D|-3---3------3----------------3-2--3----3-2-3-3-3-|
A|---3---------------------------------------------|
E|-------------------------------------------------|

e|-------------------------------------------------|
B|---------1------1-1---1--------------------------|
G|-------2------2-----2---2--0--------0------------|
D|-3---3------3----------------3-2--3----3-2-3-3-3-|
A|---3---------------------------------------------|
E|-------------------------------------------------|

e|----------------------------------------------------|
B|----------------------------------------------------|
G|-2-0-2-------------2-2-0-2--------------------------|
D|-------0--2-3--2-3---------3--2-0----0-2--0---0-0-0-|
A|----------------------------------4---------4-------|
E|----------------------------------------------------|

e|------------------------------------------------------|
B|------------------------------------------------------|
G|-2-0-2-------------2-2-0-2----------------------------|
D|-------0--2-3--2-3---------3--2-0----0-2--0---0-0-0---|
A|----------------------------------4---------4-------3-|
E|------------------------------------------------------|


Armonie:

   
   

   
   


Acorduri:
Fm  :133111
C7  :x32310
Eb7 :xx1323
Ab  :466544

Ultima actualizare:  19.09.2010

Comentarii

Pentru a putea vota sau adăuda comentarii, e nevoie să te autentifici sau înregistrezi .

Acorduri