Vama Veche – Zmeul

(6 voturi)

Contribuție:  DDsix


Vama Veche - Zmeul

TAB: Popovici Daniel
EMAIL: nascutobosith@yahoo.com

Sursa versuri: www,versuri.ro

Tabul a fost facut dupa varianta aceasta: http://www.youtube.com/watch?v=sj1Asfw7avE

La cerere, voi face si un Guitar Pro tab cu tot cantecul, inclusiv solo-ul final.

Legenda:
 p   - pick
 h   - hammer
 /   - slide up
 \   - slide down 
 b   - bend
 b*  - revenire din bend la nota initiala*1
 br  - bend si revenire la nota initiala*2
 ~   - vibrato
 x   - dead note 

*1- ciupesti de doua ori coarda: o data cand faci bendul in sus si apoi inca o data cand 
revii din bend in nota initiala.
*2- faci bendul si revii la nota initiala fara sa ciupesti coarda decat o singura data.
Tab intro:

e|-------8---------------------8----8--------------------------------------
b|---------11~ let ring--10h11---8b---8br--6------------------------6-6----
g|-7--10-------------------------------------5h7p5------------5~ -7-----6\-
d|-------------------------------------------------7\3-3--5/7--------------
a|-------------------------------------------------------------------------
e|-------------------------------------------------------------------------


-----10----10--------------------------8-----------------13/15-13---------------------
-/10----10----13p10-13~ let ring---------h11-11~ let ring---------13b-13b-13~ let ring
----------------------------------7h10------------------------------------------------
--------------------------------------------------------------------------------------
--------------------------------------------------------------------------------------
--------------------------------------------------------------------------------------


----------------------------13-13h15~ -15-15br--13-15-13h15-13~ let ring--20b*-17
-10-11-13----------------15------------------------------------------------------
----------10-12-14~ -/14---------------------------------------------------------
---------------------------------------------------------------------------------
---------------------------------------------------------------------------------
---------------------------------------------------------------------------------


-----------------20br--17-------20--20--20--20--20--20--20--------------
---20-18-18~ let ring----18~ -20b-20b-20b-20b-20b-20b-20b-20br~ let ring
------------------------------------------------------------------------
------------------------------------------------------------------------
------------------------------------------------------------------------
------------------------------------------------------------------------

Acorduri folosite:
A#-1333XX

C -3555XX

F -112331

Am-01220x

A#                           C
Eu ti-am alergat prin vene..
                             F
Ti-am suflat cu dor pe gene..
                             Am
Eu ti-am upgradat sarutul...
                             A#
Ti-am iubit necunoscutul....

                             C
Am fost zmeul tau mereu
                             F
Sa ma tii in vant nu-i greu...
                             Am
N-ai stiut sa tragi d sfori...
                       A#
Am cazut de mii de ori...am cazut de mii de ori...
    C
....Trebuie sa zbor.....


Am cazut de mii de ori....
N-ai stiut sa tragi d sfori...
Sa ma tii in vant nu-i greu...
Am fost zmeul tau mereu

Ti-am iubit necunoscutul....
Eu ti-am upgradat sarutul...
Ti-am suflat cu dor pe gene..
Eu ti-am alergat prin vene..
...Trebuie sa zbor...

Sa fac dragoste cu ploaia...
Sa fac dragoste cu vantul...
Sa fac dragoste cu cerul...
Sa ma-ntind pe tot pamantul...

Stelele sunt zurii noptii..
Numai amintirea zilei...
Norii sunt cearceaf pe soare...
Ei ma vor uita de tine...
Vor uita de tine...vor uita de tine..
...Cand linistea va curge!!

Sa fac dragoste cu ploaia...
Sa fac dragoste cu vantul...
Sa fac dragoste cu cerul...
Sa ma-ntind pe tot pamantul...

Stelele-s pistruii noptii,
Luna-i amintirea zilei,
Norii sunt cearceaf pe soare,
Ei ma vor uita de tine,
Ma vor uita de tine,
Ma vor uita de tine,
Linistea va curge-n mïne...

Pop-Rock  

Ultima actualizare:  24.09.2010

Comentarii

Pentru a putea vota sau adăuda comentarii, e nevoie să te autentifici sau înregistrezi .