Paul Arva – Iubeste-ma

(1 voturi)

Contribuție:  Cipyflo


                       
Nu conteaza daca luna e oarba
                        
N-ar conta de s-ar prabusi.
                          
Nu conteaza daca mierea-i amara,
                       
Cata vreme m-ai putea iubi.

Nu conteaza daca timpul ne duce,
Nu conteaza daca anii ne pier.
Dar conteaza daca-n inima mea
Te-ai ascunde mai mult ca perfect.


Ref.
                       
 Iubeste-ma nu,numai o clipa
                     
 Iubeste-ma numai,numai asa
                    
Iubeste-ma nu,numai cu gandul
                   
Numai cu ochii,iubeste-ma
            
Asta ar conta.


Nu conteaza dac-Alaska infloreste,
Nu conteaza daca-n mine e frig,
Nu conteaza daca tu esti in flacari,
Cata vreme pot sa te sting.

Nu conteaza daca ingerii cad,
Cad intre noi atat de frumos…
Nu conteaza daca marea ia foc,
Oricum,lumea asta e-ntoarsa pe dos.

Ref...




A
-|----------e
-|----------B
-|----6-----G
-|----7-----D
-|----7-----A
-|----5-----E

B
-|----------e
-|----------B
-|----8-----G
-|----9-----D
-|----9-----A
-|----7-----E

Gm#
-|----------e
-|----------B
-|----4-----G
-|----6-----D
-|----6-----A
-|----4-----E

Esus4
-|----------e
-|----------B
-|----2-----G
-|----2-----D
-|----2-----A
-|----------E


Nu va mai ramane decat sa asculttati bine cantecul si sa incercati sa sune frumos.
Pentru alte detalii ma gasiti aici: http://cipyflo.blogspot.com

Folk  

Pentru a putea vota sau adăuda comentarii, e nevoie să te autentifici sau înregistrezi .

Acorduri