Daniel Iancu – Vine valul, imi ia calul (solo)

(4 voturi)

Contribuție:  anonim155


E|0--------------|----------|----------------------------|------------------||
B|-3-1-0---3-1-0-|-----0----|----------------0-3-1-1-0---|---0-0-0-1-0-----0||
G|--------------2|0-0-0-2-0-|---------0-2-2-2---------2-2|2-2---------2-1-2-||
D|---------------|---------4|2-2-2-2-4-------------------|------------------||
A|---------------|----------|----------------------------|------------------||
E|---------------|----------|----------------------------|------------------||

E||0--------------|----------|----------------------------|-------------------|
B||-3-1-0---3-1-0-|-----0----|----------------0-3-1-1-0---|---0-0-0-1-0---0---|
G||--------------2|0-0-0-2-0-|---------0-2-2-2---------2-2|2-2---------2-1--2-|
D||---------------|---------4|2-2-2-2-4-------------------|-------------------|
A||---------------|----------|----------------------------|-------------------|
E||---------------|----------|----------------------------|-------------------|

Comentarii

Pentru a putea vota sau adăuda comentarii, e nevoie să te autentifici sau înregistrezi .