Daniel Iancu – Ofiterul Radu

(29 voturi)

Contribuție:  anonim155


Intro:
E|------0-----|-------------|-----------------|
B|--1-----3--1|--0---3--1--0|--1--0------0---1|
G|2---2-------|0---0--------|2------2--0---0--|
D|------------|-------------|-----------------|
A|------------|-------------|-----------------|
E|------------|-------------|-----------------|

E|------0-----|-------------|------0----------|
B|--1-----3--1|--0---3--1--0|--1-----3--1-0--1|
G|2---2-------|0---0--------|2---2------------|
D|------------|-------------|-----------------|
A|------------|-------------|-----------------|
E|------------|-------------|-----------------|


 
E un lucrator destoinic,
 
Isi cunoaste meseria,
 
Ca mai toti romanii care 
           
Inca sunt pe-aici.
 
Cand il vad cu sapca aia 
 
Ce i-a dat-o primaria,
 
Cum munceste cu ardoare,
            
Parca simt furnici
Este ofiterul Radu,
Un chitantier el are,
El de urbe are grija, 
Nimeni nu-i ca el.
Are un papuc cu cadru 
Care-n spate-i plin de fiare,
C-am parcat masina-n curba 
Si-a aparut el.

Refren:..

            
Radu Maza.. Radu Maza..
          
Radu m-a zarit
                  
Si-mi blocheaza, si-mi blocheaza
         
Roata la Olcit.

Urbea mea e cea mai tare,
Cu strazi noi si luminate
Si noi toti ca si Raducu ,
Este evident
C-avem grija de parcare,
Fiindca altfel nu se poate,
Altfel apare papucul,
Radu e prezent.
Ieri mergeam catre faleza,
Am trecut de bariera,
Taxa nu platesc, sunt tare,
Nu vrea muschii mei.
Scot Olcitul din viteza
Sa-mi agat o partenera,
Cand aud zgomot de fiare
Si se-aude: “Bey! Ce faci, ma?”

Refren:..

Se zvoneste de o vreme 
Ca Raducu are-o boala,
O boala de nu se poate
Pe masini cu B.
Unu d-asta-mi face semne
C-o problema mai nasoala,
Opresc Olcitu’ in spate 
Si-l intreb ce e.
Am avaria pornita,
Insa asta nu conteaza,
Ordinea si disciplina
Iar am incalcat.
Cine credeti ca se-agita
Si chitanta-mi completeaza
Si-mi blocheaza iar masina,
‘Cine m-a blocat?’

Refren:..

Daca ma mai prinde-o data
N-are rost s-o mai descuie,
Cred c-am dat pana acuma
Suta de parai.
Cu asa caruta tata, 
Cum mai intru eu in UE,
Acolo e numai spuma,
Mai bine mi-o tai.
La cum e de rablagita,
Nici nu iau pe ea o suta,
Poate sa si-o ia acasa 
S-o conduca ei.
Sau daca-i putin vopsita,
Cred ca nici nu o mai muta,
Face Olcit loc de joaca
Pentru puradei.

Bicicleta, bicicleta
Cred ca imi voi lua.
Ca caii de la bicicleta
Nu-i poate bloca…
Nu-i poate bloca.

Pentru a putea vota sau adăuda comentarii, e nevoie să te autentifici sau înregistrezi .

Acorduri