Fly Project – Goodbye (solo)

(2 voturi)

Contribuție:  sorynn


Solo - fara capo




E-------12-12-12-12/14-9--|---12-12-12-12/14-9-----|--12-12-12-12/14-9--9-7-5----------|
B--5/7--------------------|------------------------|--------------------------7--------|
G-------------------------|------------------------|-----------------------------------|
D-------------------------|------------------------|-----------------------------------| 
A-------------------------|------------------------|-----------------------------------|   
E-------------------------|------------------------|-----------------------------------|



E------12-12-12-12/14-9--|---12-12-12-12/14-9---|--12-12-12-12/14-9--9-12-15/17-15-12--|
B--5/7-------------------|----------------------|--------------------------------------|
G------------------------|----------------------|--------------------------------------|
D------------------------|----------------------|--------------------------------------|  
A------------------------|----------------------|--------------------------------------|  
E------------------------|----------------------|--------------------------------------|

Dance  

Ultima actualizare:  20.02.2011

Comentarii

Pentru a putea vota sau adăuda comentarii, e nevoie să te autentifici sau înregistrezi .