Fly Project – Goodbye

(4 voturi)

Contribuție:  sammy81


                              
I remember your name crying in a rain
                            
When you left and close my door
                        
I remember myself in my emptiness
                         
Waiting for a special call


Refren:

                               
I am begging you , I am begging you
                             
I’m begging you right’s to cry
                               
I am begging you , I am begging you
                        
I wish I’ll never said goodbye

N.C.
I tu sabes que dijo

                                             
Na , na , no tengo lie, no tengo lie, no tengo lie
                                             
Na , na , no tengo lie, no tengo lie, no tengo lie   x2



Solo


E:--------11/13-11-11-11h13-------11/13-11-11-11h13-------11/13-11—11h13--------|
B:---------------------------13v----------------------13v-----------------13v---|
G:-8/10v------------------------------------------------------------------------|
D:------------------------------------------------------------------------------|
A:------------------------------------------------------------------------------|
E:------------------------------------------------------------------------------|

E:------------------------------------------------------------------------------|
B:--13-13--11--9--8-------------------------------------------------------------|
G:-------------------10v--------------------------------------------------------|
D:------------------------------------------------------------------------------|
A:------------------------------------------------------------------------------|
E:------------------------------------------------------------------------------|

E:---11/13-11-11-11h13-------11/13-11-11-11h13--------11/13-11—11h13------------|
B:----------------------13v----------------------13v-----------------13v--------|
G:------------------------------------------------------------------------------|
D:------------------------------------------------------------------------------|
A:------------------------------------------------------------------------------|
E:------------------------------------------------------------------------------|

E:------15/16-15—13v------------------------------------------------------------|
B:--13--------------------------------------------------------------------------|
G:------------------------------------------------------------------------------|
D:------------------------------------------------------------------------------|
A:------------------------------------------------------------------------------|
E:------------------------------------------------------------------------------|  x2

Dance  

Comentarii

Pentru a putea vota sau adăuda comentarii, e nevoie să te autentifici sau înregistrezi .

Acorduri