Coma – Stai

(13 voturi)

Contribuție:  anonim154


Interpreteaza:    Coma
Album:            Somn

 
*** In mod sigur cea mai buna piesa de pe album ... supertare :)
 
Pentru a canta melodia mai usor si cm se cuvine , va trebui sa faceti o mica 
jmecherie in acordarea chitarii , numita "drop-D" , adica pe romaneste mi-ul
(ultima coarda) este defapt mai jos un ton , adica re . Este foarte simplu de 
realizat : pozitia 7 de pe mi trebuie sa sune la fel ca La (coarda 5) ... In  
rest toate corzile sunt acordate normal . Va rezulta astfel , "low to high" ,
D-A-d-G-B-e ... Ascultati CD-ul pt. timing si ritm :)
 
Intro - clean tone
 
e|------------------|
B|------------------|
G|------------------|
D|--3-3--3-3-3--0---|
A|--3-3--3-3-3--0---| - ultimul acord este lasat sa sune
D|--3-3--3-3-3--0---|
 
Primul Refren - distors la greu :)
 
e|-----------------------------|
B|-----------------------------|
G|-----------------------------|
D|--3-3--3-3-3--0--000000000---|
A|--3-3--3-3-3--0--000000000---|
D|--3-3--3-3-3--0--000000000---|
 
Primul Vers
 
e|---------------|
B|---------------|
G|---------------|
D|---------------|
A|--3--3--0--0---| - practic este un ritm bazat pe aceste 2 acoduri  
D|--3--3--0--0---|             asclutati melodia pt. a va edifica 
   {__________}----> palm mute
 
Refren
 
e|----------------------------|
B|----------------------------|
G|----------------------------|
D|--3-3--3-3-3--0--20020-00---|
A|--3-3--3-3-3--0--20020-00---| - facut cu "skepsis" :)
D|--3-3--3-3-3--0--20020-00---|
 
Iesire din refren
 
e|------------|
B|------------|
G|------------|
D|--3--2--0---|
A|--3--2--0---| - ultimul acord lasat sa sune
D|--3--2--0---|
 
Al doilea vers
 
                    ***
e|-------------------------|
B|-------------------------|
G|-------------------------|
D|-------------------------|
A|--333333-0000000-(333)---| - "*"=armonica (optional)
D|--333333-0000000-(333)---|
   {______________}---------->palm mute
 
Repetati Refrenul
 
Bridge
 
e|------------------------------|
B|------------------------------|
G|------------------------------|
D|------------------------------|
A|--1/2/1--1/2/3--2/3/2-1/2/1---| - "/"=slide
D|--1/2/1--1/2/3--2/3/2-1/2/1---|
 
Interludiu (kestie nasoala)
 
e|--------------------------------|
B|--------------------------------|
G|--------------------------------|
D|--1/2/1--2/3/4/3/2-5--2-1/2/1---|
A|--1/2/1--2/3/4/3/2-5--2-1/2/1---| - "/"=slide
D|--1/2/1--2/3/4/3/2-5--2-1/2/1---|
 
Repetati Refrenul
 
Pe fiecare refren mai este o chitara , nu sunt sigur de ea...ecsact...
Oricum s-ar putea sa fie doar ... DJ Hefe :)
 
e|----------------------------------|
B|--12 12 12 12 12 12--9999999999---|
G|----------------------------------|
D|-- 9  9  9  9  9  9--6666666666---|
A|----------------------------------|
D|----------------------------------|
 
Gata ! Ca da va dati seama de unele kestii ascultati BINE melodia !
A ! Si ca sa nu ziceti ca sunt tzaran ... uite si versurile :)
 
stai, stai 
esti altfel azi 
taci, taci 
cu vorbe cazi 
faci, faci 
pacat din ce crezi ca s-a terminat
te simt cu gandul fierbinte dar nu te simt aici
plutesti undeva departe
esti altfel azi, esti altfel azi
iti simt privirea calda dar nu o simt aici
cauti , cauti ceva departe 
esti altfel azi, esti altfel azi
stai, stai 
esti altfel azi 
taci, taci 
cu vorbe cazi 
faci, faci 
pacat din ce crezi ca s-a terminat 
parca ai vrea o naivitate noua 
de altundeva, neatinsa si calma 
esti altfel azi, esti altfel azi 
desi ma  port la fel in cuvinte si gesturi 
imi calci patima cu ochii (zambind) 
esti altfel azi, esti altfel azi 
stai, stai 
esti altfel azi 
taci, taci 
cu vorbe cazi 
faci, faci 
pacat din ce crezi ca s-a terminat
da-mi cuvinte sa-nteleg ce se-ntampla cu tine 
da-mi cuvinte sa-nteleg ce se-ntampla cu tine

Rock  

Pentru a putea vota sau adăuda comentarii, e nevoie să te autentifici sau înregistrezi .