Andrei Păunescu – Amor cubist (intro)

(4 voturi)

Contribuție:  Radu.


AMOR CUBIST INTRO


e|-------------------------------------------------------------
B|-----------10-10--8-8-6-8-8-6-8/10--------10-10-8------------
G|-----7-7-----------------------------7-7-----------9-9-10-9-7
D|-------------------------------------------------------------
A|-------------------------------------------------------------
E|-------------------------------------------------------------





e|-------------------------------------------------------------
B|---------10-8-8-6-8-8-6-8/10--------10-10-8------------------
G|--7-7-7------------------------7-7-----------9-9-10-9-7------
D|-------------------------------------------------------------
A|-------------------------------------------------------------
E|-------------------------------------------------------------


NOTE: DE A 2-a PARTE A INTRO-ULUI NU SUNT SIGUR .. DAR DACA DESCOPERITI VA ROG ZICETI-MI SA CORECTEZ:)

Ultima actualizare:  25.04.2011

Comentarii

Pentru a putea vota sau adăuda comentarii, e nevoie să te autentifici sau înregistrezi .